Oops, an error
Loading. Please wait.

Black Magic Woman Live bass

version 3
version 3

Whole song

Interactive

541 views 27 this week
no commentswrite comment
1 2 3 4 5
2 more votes to show rating
add to favorites
×
Save as Personal and add changes to this tab that will be seen only by you. Learn more ›
×
You can save this tab as Personal to edit and correct it or add notes. All changes will be seen only by you. Learn more »
launch autoscroll
font size
0
reset
guitar tuner
backing track
0:00
0:00
edit
Autoscroll
slow
fast
+/-
esc
set tempo
stop
Author
Difficulty
Carlos Santana
Black Magic Woman
LIVE MEXICO (subido por jelo)
SACRED FIRE ALBUM
Bass Tabs

Tempo : 125 bpm
Tuning: EADG


Intro instrumental : 00:06       
G|--------||---------------|    |---------------|-
D|--------||---------------|    |---------------|-
A|-05-----||-12-/-5---0-5--| X4 |-12-/-5---5-5--|-
E|--------||---------------|    |---------------|-

00:22
G|-------------|-------------|    |------|-
D|-7--5g-------|-5--3g-------|    |------|-
A|--------8/7r-|--------7/5r-| X2 |-05---|-
E|-------------|-------------|    |------|-

Carlos Santana’s guitar solo – 00:38
G|-----5575----5575--------------------5575------5--------------------------|-
D|----7-------7-------5575----5575----7--------7--765-----3353-----335------|-
A|-5-------5---------7-------7------5--------5----------5--------5-----3--5-|-
E|----------------5-------5-------------------------------------------------|-

--------5575------------5575------5575g---|-
------7--------5575---7--------7----------|-
---5---------7------5--------5------------|-
-----------5------------------------------|-

01:02  
G|-------5575--|    |- DRUMS -||- DRUMS -|- 
D|-----7-------|    |--+-+-+--||--+-+-+--|- 
A|--5----------| x3 |--5-5-5--||--5-5-5--|-    
E|-------------|    |---------||---------|- 

01:09
G|-------5575--|    |--  Percussions   --|- 
D|-----7-------|    |--+-+-+-+-+-+-+-+---|- 
A|--5----------| x2 |--5-5-5-5-5-5-5-5~~-|-     
E|-------------|    |--------------------|- 

Verse 1 - 01:16 - Got a black magic woman…
G|-----5575----5575---------------------5575-----5-------------------------|-
D|----7-------7-------5575----5575----7--------7--765-----3353-----335-----|-
A|-5-------5---------7-------7------5--------5----------5--------5----3--5-|-
E|----------------5-------5------------------------------------------------|-

--------5575------------5575------5575g---|-
------7--------5575---7--------7----------|-
---5---------7------5--------5------------|-
-----------5------------------------------|-

Verse 2 - 01:38 - Don’t turn your back on me Baby
G|-----5-7g--5----------------------------5575----5----------------------------|-
D|---7---------7-------5575-----5575----7-------7--765------3353-----3--5------|-
A|-5-------------5---7--------7-------5-------5----------3-5------5-------3--5-|-
E|-----------------5--------5--------------------------------------------------|-

--------5575------------5575------5575g---|-
------7--------5575---7--------7----------|-
---5---------7------5--------5------------|-
-----------5------------------------------|-

Instrumental: 01:59 (PLAY X2)
G|-----5575----5575---------------------5575-----5-------------------------|-
D|----7-------7-------5575----5575----7--------7--765-----3353-----335-----|-
A|-5-------5---------7-------7------5--------5----------5--------5----3--5-|-
E|----------------5-------5------------------------------------------------|-

--------5575------------5575------5575g---|-
------7--------5575---7--------7----------|-
---5---------7------5--------5------------|-
-----------5------------------------------|-


Verse 3 - 02:42 - You put your spell on me Babe
G|-----5575----5575---------------------5575---7g-5----------------------------|-
D|----7-------7-------5575----5575----7-------------765-----3-5----------------|-
A|-5-------5---------7-------7------5---------------------5------5-5-5--5-5-5--|-
E|----------------5-------5----------------------------------------------------|-

--------5575------------5575------5575g---|-
------7--------5575---7--------7----------|-
---5---------7------5--------5------------|-
-----------5------------------------------|-

Reprise 03:02                 
G|----------||-----------------|-
D|----------||-----------------|-
A|-5r--05-5-||--12-/-5---0-5r--|- x3
E|----------||-----------------|-

03:16
G|---7-5--------------||-----------------------------------|-
D|-------7-5----------||-----------------------------------|-
A|-----------8-7-0-5r-||-0-5--0-5--0-5--0-5--0-5--0-5--0-5-|-
E|--------------------||-----------------------------------|-

03:23 -  Repeat according to music and rhythm  
G|---|-------|-------|-------|-------||-
D|---|-------|-------|-------|-------||-
A|---|-0-3-5-|-0-7-5-|-0-3-5-|-0-7-5-||- x22
E|---|-------|-------|-------|-------||-

G|--------------------||
D|--------------------||
A|--0-0-0-3~-0-3-5-0~-|| 
E|--------------------||

Then...
G|---|-------|-------|-------|-------||-
D|---|-------|-------|-------|-------||-
A|---|-0-3-5-|-0-3-5-|-0-3-5-|-0-7-5-||-  repeat xxx
E|---|-------|-------|-------|-------||-


07:27 
G|-------|-------|-------|-------||-
D|-------|-------|-------|-------||-
A|---5---|---5---|-3-2-0-|---5---||- 
E|-------|-------|-------|-------||-

G|-------|-------|-------|-------||-
D|-------|-------|-------|-------||-
A|-3-2-0-|---5---|-3-2-0-|---5---||- 
E|-------|-------|-------|-------||-

07:41
G|---|-------|-------|-------|-------||-
D|---|-------|-------|-------|-------||-
A|---|-0-3-5-|-0-7-5-|-0-3-5-|-0-7-5-||-  XXX
E|---|-------|-------|-------|-------||-

Outro: 08:40
G|--------------------------||
D|--------------------------||
A|--3--2--0~~~--------------|| 
E|--------------------------||

End : 08:50

Tablature Legend
----------------

| S  slap
| P  pop
| x  mute note
| /  slide up
| \  slide down
| h  hammer-on
| p  pull-off
| g  grace note
| ~  vibrato
| ^  brush up
Suggest correction
Creating personal tab
Creating personal tab
You can edit any tab online and save it as your Personal.

You can edit, replace or remove any tab part or add personal notes – all changes will be seen only by you.

Personal tabs can be accessed anytime from any device, even offline.
Learn more »
Give kudos to tab author, rate the tab!
1 2 3 4 5
comments
print report bad tab
guest
You may want to rate the tab now too:
select rating
Wanna post a correction for this tab? Suggest correction