Oops, an error
Loading. Please wait.

Europa Tab

version 4
version 4
48,237 views 42 this week
1 commentread comment
1 2 3 4 5
worth learning
x 4
add to favorites
launch autoscroll
font size
0
reset
how to read this tab
guitar tuner
Autoscroll
slow
fast
+/-
esc
set tempo
stop
Help us to improve Ultimate-Guitar.com Take our survey!
×
Contributor
Difficulty
intermediate
this isnt really the whole song but it will surely help you alot.

Played mostly in C Aeolian mode of the D# Major diatonic scale. There are a few licks in 
Minor pentatonic. It proves to be a nice mix of the two scales. this is just one tab 
i fixed up and made sound way better


e|-8-10h11-10-8---------------7-7h8p7---------------|
b|8-------------11-8-8h9--9-11--------11------------|
g|----------------------------------------10/12-----|
D|--------------------------------------------------|
A|--------------------------------------------------|
E|--------------------------------------------------|

e|--------------------------------------------------|
b|8-9-11/13-11-9-8---------------8-9-9h11-9p8-------|
g|------------------8h10-8h10-10---------------10p8-|
D|--------------------------------------------------|
A|--------------------------------------------------|
E|--------------------------------------------------|

e|-------------------------------8------------------|
b|-------------------------------8------------------|
g|10p8---------------------------8------------------|
D|------10p8----------------------------------------|
A|------------10p8/6-6-8/10-------------------------|
E|--------------------------11-8--------------------|

e|-8-10h11-10-8---------------7-7h8p7---------------|
b|8-------------11-8-8h9--9-11--------11------------|
g|----------------------------------------10/12-----|
D|--------------------------------------------------|
A|--------------------------------------------------|
E|--------------------------------------------------|

e|--------------------------------------------------------|
b|8-9-11/13-11-9-8---------------8-9-9h11-9p8-8h9p8-------|
g|------------------8h10-8h10-10--------------------10/12-|
D|--------------------------------------------------------|
A|--------------------------------------------------------|
E|--------------------------------------------------------|

e|-------13b(up)b(up)b(down)p11h13p11-13/15--------------|
b|---11--------------------------------------------------|
g|12-----------------------------------------------------|
D|-------------------------------------------------------|
A|-------------------------------------------------------|
E|-------------------------------------------------------|
                              slow hammer ons and pull offs
e|-------11-13-13-11-13b(up)b(down)p11h13p11h13p11h13----|
b|---11--------------------------------------------------|
g|12-----------------------------------------------------|
D|-------------------------------------------------------|
A|-------------------------------------------------------|
E|-------------------------------------------------------|

e|13b(up)b(up)b(up)b(down)-11--11h13p11/10h11p10---------|
b|---------------------------13------------------8-------|
g|-------------------------------------------------10p/7-|
D|-------------------------------------------------------|
A|-------------------------------------------------------|
E|-------------------------------------------------------|

e|11b-8----------------------------------------8---------|
b|------11-8----------8------------------------8---------|
g|-----------10b-8------8----------------------8---------|
D|-----------------10-----10---8-------------------------|
A|-------------------------------10/8-6------------------|
E|--------------------------------------8-6h8------------|

e|--------------------------------------------------------|
b|------------8--------8--------8-------------------------|
g|---7-8-8h10-----8h10-----8h10---------------------------|
D|10------------8--------8--------------------------------|
A|--------------------------------------------------------|
E|--------------------------------------------------------|

e|---------------------------------------------------------------|
b|----------------------11---------11---------11-11----11-13-11b-|
g|--8h10-8-10-8-8h10/12------10/12------10/12-------12-----------|
D|8------------------------8----------8--------------------------|
A|---------------------------------------------------------------|
E|---------------------------------------------------------------|

e|8-------------------------------8----------------------|
b|--11----------------8---------8---11-------------8-----|
g|-----10b-8-----8h10------8h10--------10b-8----10---8---|
D|-----------10--------10--------------------10----------|
A|-------------------------------------------------------|
E|-------------------------------------------------------|

e|-------------------------------------------------------|
b|-------------------------------------------------------|
g|10p8---------------------------------------------------|
D|-----10p8----------------------------------------------|
A|----------10p8/6-6-8/10--------------------------------|
E|------------------------11-8/0-------------------------|

e|--------------------------------------------------------|
b|------------8--------8--------8-------------------------|
g|---7-8-8h10-----8h10-----8h10-----8h10------------------|
D|/10-----------8--------8--------8-----------------------|
A|--------------------------------------------------------|
E|--------------------------------------------------------|

e|---------------------------------------------------------------------|
b|---------------11---------11---------11---------11-11----11-13-11b---|
g|8-10-8-8h10/12------10/12------10/12------10/12-------12-------------|
D|------------------8----------8----------8----------------------------|
A|---------------------------------------------------------------------|
E|---------------------------------------------------------------------|

e|8------------8--------------------------------------------|
b|--11-8-----8---11-8----------8------8---------------------|
g|-------10b----------10b-8------8h10---10------------------|
D|--------------------------10------------------------------|
A|----------------------------------------------------------|
E|----------------------------------------------------------|

e|------8--------------------------------------------------------------|
b|----8---11-8---------------------------------------------------------|
g|10b----------10b-8----8h10/12----------------------12-14b-12-14b-12--|
D|-------------------10---------------------10h12/14-------------------|
A|------------------------------10-10-10h12----------------------------|
E|---------------------------------------------------------------------|

e|------13b(up)b(up)b(down)p11h13-12h13-13bp11h13p11h13--|
b|---13--------------------------------------------------|
g|12-----------------------------------------------------|
D|-------------------------------------------------------|
A|-------------------------------------------------------|
E|-------------------------------------------------------|

e|13b(up)b(up)b(down)p11-13-13b(up and down)p11h13p11/10-|
b|-------------------------------------------------------|
g|-------------------------------------------------------|
D|-------------------------------------------------------|
A|-------------------------------------------------------|
E|-------------------------------------------------------|

e|11b-11-8-----------------------------------------------|
b|---------11-8----------8--------------------88---------|
g|--------------10b-8------8---------8-8-----------------|
D|--------------------10-----10-8h10-----8h10------------|
A|-------------------------------------------------------|
E|-------------------------------------------------------|

e|--------- ---------------------------------------------|
b|8-11-9-8-11-9-8-----------------------8-8--------------|
g|----------------10b-8----10-8--------------------------|
D|----------------------10------10-8h10------------------|
A|-------------------------------------------------------|
E|-------------------------------------------------------|

e|-----------12b---8-(11-10h11p10p8)3x-11p10p8-11-10h11p10p8-11p10p8-11b-|
b|8-11/13-13-----8-------------------------------------------------------|
g|-----------------------------------------------------------------------|
D|-----------------------------------------------------------------------|
A|-----------------------------------------------------------------------|
E|-----------------------------------------------------------------------|

e|11p10p8h11p10p8-------------11-13b---------------------|
b|----------------9p8------13----------------------------|
g|--------------------10p8-------------------------------|
D|-------------------------------------------------------|
A|-------------------------------------------------------|
E|-------------------------------------------------------|

this is all i know so far, when i figure ou the rest i will put connect it to this very same one.
so plz rate and commet and ask me for any questions REGARDING this tab.
comments
print report bad tab
1 comment total.
0 reply
Vukasin Jocko 104 wrote on January 24 2010, 10:05 am

Good but see version 3 man !!!

I want to post or [tab]
guest
You may want to rate the tab now too:
select rating
Please do not post tabs as comments. Select "correction" instead!