Oops, an error
Loading. Please wait.

Jingo Bass

version 1
version 1

Whole song

Interactive

4,110 views 3 this week
1 commentread comment
1 2 3 4 5
1 last vote to show rating
add to favorites
launch autoscroll
font size
0
reset
guitar tuner
backing track
0:00
0:00
×
Best way to learn
"Jingo"
Autoscroll
slow
fast
+/-
esc
set tempo
stop
Jingo - Santana 
G|-------------|-------------------| 
D|-------------|--002--002--002-| 
A|-2-00-2200-|2----22----2----2| 
E|2-----2------|-------------------| 

Throw these two riffs around and that will do it. 
Suggest correction
Give kudos to tab author, rate the tab!
1 2 3 4 5
comments
print report bad tab
1 comment total.
+2 reply
degete_mici 208 Sep 27, 2007 01:16 AM

hey , i think dis is tha correct variasion

E S E. E E S E. E E S E. E Q. E
G||--------------------------|------------------------|
D||-----------0-----------0--|-----------0---------0--|
A||--2--x-2------2--x-2------|--2--x-2------2---------|
E||--------------------------|------------------------|


E S E. E E S E. E E S E. E Q. E E S E. E E S E. E
--------------------------|------------------------|--------------------------|
-----------0-----------0--|-----------0---------0--|-----------0-----------0--|
--2--x-2------2--x-2------|--2--x-2------2---------|--2--x-2------2--x-2------|
--------------------------|------------------------|--------------------------|


E S E. E H
-----------------------||
-----------0-----------||
--2--x-2------2--------||
-----------------------||

guest
You may want to rate the tab now too:
select rating
Wanna post a correction for this tab? Suggest correction