Oops, an error
Loading. Please wait.

Jingo Tab

version 1
version 1

Whole song

Interactive

36,712 views 39 this week
4 commentsread comments
1 2 3 4 5
x 13
add to favorites
launch autoscroll
font size
0
reset
how to read this tab
guitar tuner
backing track
0:00
0:00
Autoscroll
slow
fast
+/-
esc
set tempo
stop
Song: Jingo
Artist: Santana
Album:Best of Santana
Transcribed by jordanlockert@yahoo.com

You will have to tune your guitar up a bit for this song, but not quite
a full fret higher. I hate it when songs are like this because it's a pain.
It may take a while to get it just right.


|----12^------14r12--10-12-10------------------12^-12^----14r12--10-12-10-|
|-12--------------------------10h12---------12----------------------------|
|-------------------------------------------------------------------------|
|-------------------------------------------------------------------------|
|-------------------------------------------------------------------------|
|-(0:40)------------------------------------------------------------------|

|-12-12--7-10--7--7----10--7--7----10--7--7----10--7--10^10--7--10--|
|--------------------10----------10----------10---------------------|
|-------------------------------------------------------------------|
|-------------------------------------------------------------------|
|-------------------------------------------------------------------|
|-(0:55)------------------------------------------------------------|

|-7--7----10--7--7----10--7--7----10--7----------------------|
|-------10----------10----------10-----10-7------------------|
|------------------------------------------9^r-6--9^---------|
|-----------------------------------------------9------------|
|------------------------------------------------------------|
|-(1:00)-----------------------------------------------------|

--------------------------------------|
-----------------------------7\-------|
-11r9--7-9---7---------------7\-------|
----------------7h9--------9----------|
--------------------------------------|
--------------------------------------|

|--7-----|
|--7-----|
|--7-----|
|--------|
|--------|
|--------|
Play on this chord during the singing

solo:
|----12^-12^---------14r12--10-12-10-----------------|
|-12----------------------------------10h12----------|
|----------------------------------------------------|
|----------------------------------------------------|
|----------------------------------------------------|
|-(2:42)---------------------------------------------|

|----15^-------------14r12--10----------------------------------------------|
|-12----------------------------10-12--------12h14---12h14--12h14-14-14-----|
|---------------------------------------------------------------------------|
|---------------------------------------------------------------------------|
|---------------------------------------------------------------------------|
|-(2:50)--------------------------------------------------------------------|

------------------------------------------------------------------------------|
-15p14p12-15p14p12-15p14p12-15p14p12-15p14p12-15-15p14p12-15p14p12-15p14p12---|
------------------------------------------------------------------------------|
------------------------------------------------------------------------------|
------------------------------------------------------------------------------|
-(2:58)-----------------------------------------------------------------------|

------------------------------------------------------------------------|
-15p14p12-15p14p12------/12-10-/12-10-/12-10-/12-10-/12-10---12-12-10---|
------------------------------------------------------------------------|
------------------------------------------------------------------------|
------------------------------------------------------------------------|
------------------------------------------------------------------------|

----7---------------|
-10---10-7----------|
-----------9^r-7----|
-----------------9--|
--------------------|
--------------------|

|-10p9p7---10p9p7---10p9p7----7----7---------7-------------------|
|-------10-------10-------10----10---10p7------10----------------|
|-----------------------------------------9^-------9^r-7---7---7-|
|--------------------------------------------------------9---9---|
|----------------------------------------------------------------|
|-(3:05)---------------------------------------------------------|

----------------------------------7-----7-----7--------------------------|
-----7----7----7----7----7-7--10^---10^---10^----10-7--------------------|
--9^---9^---9^---9^---9^------------------------------9^r-7---9^---------|
------------------------------------------------------------9------------|
-------------------------------------------------------------------------|
-(3:09)------------------------------------------------------------------|

--------------------------------------|
--------------------------7\----------|
-11r9--7-9--7-------------7\----------|
---------------7-9--------------------|
--------------------------------------|
--------------------------------------|

************************************

Tablature Explanation:
h=hammer-on
p=pull-off
/=slide up
\=slide down
^=bend
br, ^r=bend &release
14r12 = pre bend from twelve to 14 then pick and release

************************************
Suggest correction
comments
print report bad tab
4 comments total. Showing first comments.
0 reply
South Paw 10 Jun 04, 2004 08:00 PM

ok, one you odnt tune higher...my god man!!! second its a good tab, misiing a few small parts but all in all its a great start! Keep on tabbin man

0 reply
Dahmir 10 Feb 17, 2006 10:14 AM

nice tab

0 reply
Fepo 773 Sep 25, 2014 08:46 AM

Great Dude :)

guest
You may want to rate the tab now too:
select rating
Wanna post a correction for this tab? Suggest correction