Oops, an error
Loading. Please wait.

Oye Como Va bass

version 3
version 3

Whole song

  • It's been 16 years since a new bass tab, and this ... Show more

Interactive

175 views 9 this week
no commentswrite comment
1 2 3 4 5
2 more votes to show rating
add to favorites
×
Save as Personal and add changes to this tab that will be seen only by you. Learn more ›
×
You can save this tab as Personal to edit and correct it or add notes. All changes will be seen only by you. Learn more »
launch autoscroll
font size
0
reset
guitar tuner
backing track
0:00
0:00
edit
Autoscroll
slow
fast
+/-
esc
set tempo
stop
About this tab version
It's been 16 years since a new bass tab, and this is laid out better and easier to follow, also there was some wrong notes in Ver 1. Was this info helpful? Yes No
--------------------------------------------------------------------------
                            Artist - Carlos Santana
                           *************************
                               Song - Oye Coma Va
                              ********************
                             Album - Abraxas (1970)
                            ************************
                              Tabbed By - Ayreon77
                             **********************
--------------------------------------------------------------------------
Tuning = Standard             


Tune down E string One Whole Step To D


INTRO
******
G|-----------------|---------------|-----------------|---------------|
D|-----------------|---------------|-----------------|---------------|
A|-0---0-----0-5-3-|-0---0-----5-3-|-0---0-----0-5-3-|-0---0-----5-3-|
D|-------0---------|-------0-------|-------0---------|-------0-------|


----------------------------
00:15
SOLO 1
*******
G|-----------------|---------------|-----------------|---------------|
D|-----------------|---------------|-----------------|---------------|
A|-0---0-----0-5-3-|-0---0-----5-3-|-0---0-----0-5-3-|-0---0-----5-3-|
D|-------0---------|-------0-------|-------0---------|-------0-------|


G|------------------------------|---------------------|
D|------------------------------|---------------------|
A|-0--0-0---0-0-0---0-0-0-5-0-7-|-0--0--0-0--5-0-7--7-|
D|------------------------------|---------------------|


----------------------------
00:38
VERSE 1
********
G|-----------------|---------------|-----------------|---------------|
D|-----------------|---------------|-----------------|---------------|
A|-0---0-----0-5-3-|-0---0-----5-3-|-0---0-----0-5-3-|-0---0-----5-3-|
D|-------0---------|-------0-------|-------0---------|-------0-------|


G|------------------------------|
D|------------------------------|
A|-0--0-0---0-0-0---0-0-0-5-0-7-|
D|------------------------------|


----------------------------
00:57
SOLO 2
*******
G|-----------------|---------------|-----------------|-----------------|
D|-----------------|---------------|-----------------|-----------------|
A|-0---0-----0-5-3-|-0---0-----5-3-|-0---0-----0-5-3-|-0---0-----0-5-3-|
D|-------0---------|-------0-------|-------0---------|-------0---------|


G|-----------------|---------------|-----------------|-----------------|
D|-----------------|---------------|-----------------|-----------------|
A|-0---0-----0-5-3-|-0---0-----5-3-|-0---0-----0-5-3-|-0---0-----0-5-3-|
D|-------0---------|-------0-------|-------0---------|-------0---------|

01:27
G|-----------------|---------------|------------------|------------------|------------------|
D|-----------------|---------------|----------4-5-6-7-|----------4-5-6-7-|----------4-5-6-7-|
A|-0---0-----0-5-3-|-0---0-----5-3-|-0---0------------|-0---0------------|-0---0------------|
D|-------0---------|-------0-------|-------0----------|-------0----------|-------0----------|

01:45
G|-----------------|---------------|
D|-----------------|---------------|
A|-0---0-----0-5-3-|-0---0-----5-3-|
D|-------0---------|-------0-------|


----------------------------
01:53
SLOWER
*******
G|-----------------|---------------|-----------------|---------|---------|---------|-----------|
D|-----------------|---------------|-----------------|---------|---------|---------|-----------|
A|-0---0-----0-5-3-|-0---0-----5-3-|-0---0-----0-5-3-|-0-0-0-0-|-0-0-0-0-|-0-0-0-0-|-0---0---0-|
D|-------0---------|-------0-------|-------0---------|---------|---------|---------|-----------|


----------------------------
02:07
ORGAN SOLO
***********
G|-----------------|---------------|-----------------|---------------|
D|-----------------|---------------|-----------------|---------------|
A|-0---0-----0-5-3-|-0---0-----5-3-|-0---0-----0-5-3-|-0---0-----5-3-|
D|-------0---------|-------0-------|-------0---------|-------0-------|


G|-----------------|---------------|-----------------|-----------------|
D|-----------------|---------------|-----------------|-----------------|
A|-0---0-----0-5-3-|-0---0-----5-3-|-0---0-----0-5-3-|-0---0-----0-5-3-|
D|-------0---------|-------0-------|-------0---------|-------0---------|


G|-----------------|----------------|-----------------|-----------------|-----------------|
D|-----------------|----------------|-----------------|-----------------|-----------------|
A|-0---0-----0-5-3-|-0---0----0-5-3-|-0---0-----0-5-3-|-0---0-----0-5-3-|-0---0-----0-5-3-|
D|-------0---------|-------0--------|-------0---------|-------0---------|-------0---------|

02:56
G|------------------------------|
D|------------------------------|
A|-0--0-0---0-0-0---0-0-0-5-0-7-|
D|------------------------------|


----------------------------
02:59
VERSE 2
********
G|-----------------|----------------|-----------------|---------------|
D|-----------------|----------------|-----------------|---------------|
A|-0---0-----0-5-3-|-0---0----0-5-3-|-0---0-----0-5-3-|-0---0-----5-3-|
D|-------0---------|-------0--------|-------0---------|-------0-------|

03:14  Steady Build Up.........
G|-------------------------------------------------------------------------|
D|-------------------------------------------------------------------------|
A|-5-5-5-5--5-5-5-5--5-5-5-5--5-5-5-5--5-5-5-5--5-5-5-5--5-5-5-5---5--5--5-|
D|-------------------------------------------------------------------------|


----------------------------
03:22
SOLO 3
*******
G|-----------------|---------------|-----------------|---------------|
D|-----------------|---------------|-----------------|---------------|
A|-0---0-----0-5-3-|-0---0-----5-3-|-0---0-----0-5-3-|-0---0-----5-3-|
D|-------0---------|-------0-------|-------0---------|-------0-------|


G|-----------------|-----------------|-----------------|-----------------|
D|-----------------|-----------------|-----------------|-----------------|
A|-0---0-----0-5-3-|-0---0-----0-5-3-|-0---0-----0-5-3-|-0---0-----0-5-3-|
D|-------0---------|-------0---------|-------0---------|-------0---------|


G|-----------------|-----------------|-----------------|-----------------|
D|-----------------|-----------------|-----------------|-----------------|
A|-0---0-----0-5-3-|-0---0-----0-5-3-|-0---0-----0-5-3-|-0---0-----0-5-3-|
D|-------0---------|-------0---------|-------0---------|-------0---------|

04:06
G|------------------------------|---------------------|
D|------------------------------|---------------------|
A|-0--0-0---0-0-0---0-0-0-5-0-7-|-0--0--0-0--5-0-7--7-|
D|------------------------------|---------------------|



ENJOY..............
Suggest correction
Creating personal tab
Creating personal tab
You can edit any tab online and save it as your Personal.

You can edit, replace or remove any tab part or add personal notes – all changes will be seen only by you.

Personal tabs can be accessed anytime from any device, even offline.
Learn more »
Give kudos to tab author, rate the tab!
1 2 3 4 5
comments
print report bad tab
guest
You may want to rate the tab now too:
select rating
Wanna post a correction for this tab? Suggest correction