Oops, an error
Loading. Please wait.

Samba Pa Ti tab

version 3
version 3
72,678 views 75 this week
no commentswrite comment
1 2 3 4 5
x 5
add to favorites
×
Save as Personal and add changes to this tab that will be seen only by you. Learn more ›
×
You can save this tab as Personal to edit and correct it or add notes. All changes will be seen only by you. Learn more »
launch autoscroll
font size
0
reset
how to read this tab
guitar tuner
backing track
0:00
0:00
edit
Autoscroll
slow
fast
+/-
esc
set tempo
stop
----------------------------------------------------------------------------
                             Samba Pa Ti - Carlos Santana
----------------------------------------------------------------------------







Guitar I - (E A D G B E - 'Lead'
Guitar II -(E A D G B E) - 'Harmony Guitar Parts'
Guitar III -(E A D G B E) - 'Keyboard'




                       G                 Bm         Em
 4/4
  Gtr III
  W                    W                 W          W
                       |                 |          |
                       /                 /          /

  Gtr I
                                         ~
  Q  e e E e a E e   a H.      E S S   a W          W
|------------------|-----------------|------------|------|
|------------4s5-8-|-----------------|-6s7--------|------|
|------4-5-7-------|-5h7-----------7-|------------|------|
|----7-------------|-------------9---|------------|------|
|------------------|-----------------|------------|------|
|------------------|-----------------|------------|------|


  Am                         G                 Bm              Em
 4/4
  W                          W                 W               W
  |                          |                 |               |
  /                          /                 /               /

                                               ~
     |-3-| |--3--|
  Q  E e e E e a E +E  e   a H.      E S S   a E Q.   +H       W
|------------------------|-----------------|-----------------|------|
|--------------4s5-(5)-8-|-----------------|-6s7-7----(7)----|------|
|--------4-5-7-----------|-5h7-----------7-|-----------------|------|
|------7-----------------|-------------9---|-----------------|------|
|------------------------|-----------------|-----------------|------|
|------------------------|-----------------|-----------------|------|


  Am                             D
  W                               W
  |                               |
  /                               /

  Q   a  E  T  T  S Q  +S  s E    a     +Q   E  a      +E   +Q.   E
|------------------------------|------------------------------------|
|----10h12-10h12p10-8--(8)-----|-10----(10)----12-----(12)-(12)-----|
|--------------------------9---|-12b14-(12)----14b16==(14)-(14)-----|
|------------------------------|------------------------------------|
|------------------------------|------------------------------------|
|------------------------------|------------------------------------|


  Am
  W
  |
  /

              |--3--|
  Q  E  T  T  T  T  T Q  e a     +E
|--------------------------------------|
|------10h12p10h12p10s8----8b10==(8)---|
|------------------------9-------------|
|--------------------------------------|
|--------------------------------------|
|--------------------------------------|


  D                                                     Am
   W                           +W                       W
   |                            |                       |
   /                            /                       /

                                                        ~
  +E  +E  e E +S  T T E +Q     +H     S S S S S S S S   W
|----------------------------|------------------------|------|
|-(8)r(8)-5-5-(5)h7p5--------|----------5-----------5-|------|
|---------------------7-(7)--|-(7)--------7-5s4h5s7---|------|
|----------------------------|------------------------|-7----|
|----------------------------|------------------------|------|
|----------------------------|------------------------|------|


  Bm                              Am
  W                                W
  |                                |
  /                                /

  E E E a E +S   T T E +E  E    a  E  T  T  S  E E E E E  a      +E
|----------------------------|---------------------------------------|
|----------------------------|-10h12-10h12p10-10-8-8---8-10-----(10)-|
|---7-7-8s9-(9)h11p9-7-(7)---|-----------------------9---12b14==(12)-|
|-9--------------------------|---------------------------------------|
|----------------------------|---------------------------------------|
|----------------------------|---------------------------------------|


  D
    W           +W
    |            |
    /            /

                    |-3-| |--3--|
   +W            Q  E e e E e a E +E  e
|-------------|---------------------------|
|-(10)--------|---------------4s5-(5)-8---|
|-(12)--------|---------4-5-7-------------|
|-------------|-------7-------------------|
|-------------|---------------------------|
|-------------|---------------------------|


    G                 Bm               Em           Am
    W                 W                  W          W
    |                 |                  |          |
    /                 /                  /          /

                      ~
  a H.      E S S   a E a Q.   +Q   Q    W          Q  e e E e a E e
|-----------------|--------------------|----------|-------------------|
|-----------------|-6s7-6s7----(7)-----|----------|------------4s5-8--|
|-5h7-----------7-|--------------------|----------|------4-5-7--------|
|-------------9---|--------------------|----------|----7--------------|
|-----------------|--------------------|----------|-------------------|
|-----------------|--------------------|----------|-------------------|


    G                 Bm
    W                 W
    |                 |
    /                 /

                      ~
  a H.      E S S   a E a Q.   +H
|-----------------|-------------------|
|-----------------|-6s7-6s7----(7)----|
|-5h7-----------7-|-------------------|
|-------------9---|-------------------|
|-----------------|-------------------|
|-----------------|-------------------|


  Em                                                  Am
  W                                                   W
  |                                                   |
  /                                                   /

                  ~~~~
                                      |---3----|
  Q    e  a      +E   +E   S  S      +S   +S   S  e   Q   a  E  T  T  S Q  e  a      +E
|----^12------------------12------------------------|------------------------------------|
|----^12-15b17==(15)-(15)---------------------------|----10h12-10h12p10-8----10-----(10)-|
|----------------------------14b16==(14)r(14)p12----|----------------------9-12b14==(12)-|
|------------------------------------------------14-|------------------------------------|
|---------------------------------------------------|------------------------------------|
|---------------------------------------------------|------------------------------------|


  D
    W
    |
    /

   +Q   E  a      +E   +Q.   E
|------------------------------|
|-(10)----12-----(12)-(12)-----|
|-(12)----14b16==(14)-(14)-----|
|------------------------------|
|------------------------------|
|------------------------------|


  Am                             D
  W                               W
  |                               |
  /                               /

              |--3--|
  Q  E  T  T  T  T  T Q  e E   a  E. S e E +S  S S S +Q
|----------------------------|-----------------------------|
|------10h12p10h12p10s8------|-8h10----5-5-(5)h7p5---------|
|------------------------9---|---------------------7-(7)---|
|----------------------------|-----------------------------|
|----------------------------|-----------------------------|
|----------------------------|-----------------------------|


                           Am                Bm
  +W                       W                 W
   |                       |                 |
   /                       /                 /

                                    |-3--|
  +H     S S S S S S S S   H.      +E  E E   a E e E. a S +E  S S E S  a  S
|------------------------|-----------------|-------------------------------|
|----------5-----------5-|-----------------|--------------------------10h12|
|-(7)--------7p5s4h5h7---|-----------------|-----7-7--8s9-(9)-7---7--------|
|------------------------|-7-------(7)-7-8-|-8s9----------------9----------|
|------------------------|-----------------|-------------------------------|
|------------------------|-----------------|-------------------------------|


  Am                               D
    W                                W           +W
    |                                |            |
    /                                /            /

   +E   e  E e E E e  a      +E     +W            W
|--------------------------------|-------------|-------||
|-(12)-10-10-8-8---8-10-----(10)-|-(10)--------|-------||
|----------------9---12b14==(12)-|-(12)--------|-------||
|--------------------------------|-------------|-------||
|--------------------------------|-------------|-------||
|--------------------------------|-------------|-------||


  G                             Bm
  W                               W
  |                               |
  /                               /

  Q  E S S E  E e  a      +E     +Q   E  a      +E   +Q.            +e
|---------------7--7------(7)-|--(7)------------------------------------|
|------8-8-8-10---10b12==(10)-|-(10)-----7------(7)--(7)----------------|
|-----------------------------|----------9b11===(9)--(9)r===========(9)-|
|-----------------------------|-----------------------------------------|
|-----------------------------|-----------------------------------------|
|-----------------------------|-----------------------------------------|
|
| Gtr II
| W                               Q.     a      +E   +Q   E  a      +E
|-----------------------------|---------10-----(10)-(10)----12-----(12)-|
|-----------------------------|---------13b15==(13)-(13)----15b17==(15)-|
|-----------------------------|-----------------------------------------|
|-----------------------------|-----------------------------------------|
|-----------------------------|-----------------------------------------|
|-----------------------------|-----------------------------------------|


  Am                            D
    W                            W
    |                            |
    /                            /

                                             ~~
                  |--3--|
    H       a  E  S  S  S E E   +Q   E E +E  Q.
|-----------------------------|--------------5-----|
|----------10h12-10h12p10-8-7-|-(7)--7-8-(8)-------|
|-----------------------------|--------------------|
|-----------------------------|--------------------|
|-----------------------------|--------------------|
|-----------------------------|--------------------|
|
|  +Q.   E     H                 W
|-(12)------------------------|--------------------|
|-(15)------------------------|--------------------|
|-----------------------------|--------------------|
|-----------------------------|--------------------|
|-----------------------------|--------------------|
|-----------------------------|--------------------|


  G                             Bm
  W                               W
  |                               |
  /                               /

  Q  E S S E  E e  a      +E     +Q   E  a      +E   +H
|---------------7--7------(7)-|--(7)-------------------------|
|------8-8-8-10---10b12==(10)-|-(10)-----7------(7)--(7)-----|
|-----------------------------|----------9b11===(9)--(9)r====|
|-----------------------------|------------------------------|
|-----------------------------|------------------------------|
|-----------------------------|------------------------------|
|
| W                               Q.     a      +E   +Q.   E
|-----------------------------|---------10-----(10)-(10)-----|
|-----------------------------|---------13b15==(13)-(13)-----|
|-----------------------------|------------------------------|
|-----------------------------|------------------------------|
|-----------------------------|------------------------------|
|-----------------------------|------------------------------|


  Am                            D
   W                             W
   |                             |
   /                             /

                                             ~~
                  |--3--|
  +e  Q.    a  E  S  S  S E E   +Q   E E +E  Q.
|-----------------------------|--------------5----||
|----------10h12-10h12p10-8-7-|-(7)--7-8-(8)------||
|-(9)-------------------------|-------------------||
|-----------------------------|-------------------||
|-----------------------------|-------------------||
|-----------------------------|-------------------||
|
|  W                             W
|-----------------------------|-------------------||
|-----------------------------|-------------------||
|-----------------------------|-------------------||
|-----------------------------|-------------------||
|-----------------------------|-------------------||
|-----------------------------|-------------------||


  G                  Am       D7
  W                   H        H
  |                   |        |
  /                   /        /

                         ~~
  Q  E S S E E E E   +E  Q.   +Q   Q
|--------------3-5-|-(5)s7----(7)-----|
|------3-3-3h5-----|------------------|
|------------------|------------------|
|------------------|------------------|
|------------------|------------------|
|------------------|------------------|


  G                  Am             D7
  W                   H              H
  |                   |              |
  /                   /              /

                             ~~~~~~
  Q  E S S E E E E   +S  T T E +Q   +Q   s E.
|--------------3-5-|-(5)----------------------|
|------3-3-3h5-----|-----3h5p3-(3)--(3)--5----|
|------------------|--------------------------|
|------------------|--------------------------|
|------------------|--------------------------|
|------------------|--------------------------|


  G                  Am       D7
  W                   H        H
  |                   |        |
  /                   /        /

                         ~~
  Q  E S S E E E E   +E  Q.   +Q   Q
|--------------3-5-|-(5)s7----(7)-----|
|------3-3-3h5-----|------------------|
|------------------|------------------|
|------------------|------------------|
|------------------|------------------|
|------------------|------------------|


  G                  Am             D7
  W                   H              H
  |                   |              |
  /                   /              /

                             ~~~~~~
  Q  E S S E E E E   +S  T T E +Q   +Q    s E.
|--------------3-5-|-(5)-----------------------|
|------3-3-3h5-----|-----3h5p3-(3)--(3)--------|
|------------------|---------------------------|
|------------------|---------------------12----|

|------------------|---------------------------|
|------------------|---------------------------|


  G                                Am                     D7
   W                                 H                    H
   |                                 |                    |
   /                                 /                    /

   ~~~~~~~~~~~~~~~~~~~~~~~~~~~~~~
                                     |--3---|
   E.  S  +E   E  +S   E.  E.  S    +E   E  E  a  E  S  S s  S s  S s  S e
|--------------------------------|-----------------------------------------|
|-15--15-(15)-15-(15)-15--15--15-|-(15)------------------------------------|
|--------------------------------|------17-16-16p14--------------14---16---|
|--------------------------------|------------------17-16---17-------------|
|--------------------------------|-----------------------------------------|
|--------------------------------|-----------------------------------------|


  G
   W
   |
   /

            ~~
   e  S  S  Q   +S  s S S    +E  +S  S
|-------------------0------------------|
|-----------------------3b5==(3)r(3)-0-|
|-12-----------------------------------|
|----12s14s12--(12)--------------------|
|--------------------------------------|
|--------------------------------------|


  Am                            D7
  H                             H
  |                             |


  /                             /

                                        ~~~~
  S    +S  S S S S a    +S  +S  S S e   Q
|------------0-----------------------------|
|----------0---3p0--------------------/15--|
|-2b4==(2)---------2b4==(2)r(2)p0----------|
|---------------------------------2--------|
|------------------------------------------|
|------------------------------------------|


  G                                Am                     D7
    W                                H                    H
    |                                |                    |
    /                                /                    /

 ~~~~~~~~~~~~~~                ~~                            ~~~
                                     |--3---|
   +E.  S  +E   E  S  E  S  e  E    +E   E  E  a  E  S  S s  E.  s S  s S
|--------------------------------|-----------------------------------------|
|-(15)-15-(15)-15----15----15-15-|-(15)------------------------------------|
|-----------------16----16-------|------17-16-16p14-------------14---16----|
|--------------------------------|------------------17-16---17-------------|
|--------------------------------|-----------------------------------------|
|--------------------------------|-----------------------------------------|


  G                                  Am             D7
   W                                   H              H
   |                                   |              |
   /                                   /              /

            ~~           ~~~                  ~~~~~~~~~~~~~~~~~~~~~~~
   E  S  S  Q   +E  E S  E.    a      +E   E  E.  S  +S   E.  E.  S
|-----------------------12--|---------------------------------------|
|---------------------------|-15b17==(15)r15-15--15-(15)-15--15--15-|
|-12------------------------|---------------------------------------|
|----12s14s12--(12)---------|---------------------------------------|
|---------------------------|---------------------------------------|
|---------------------------|---------------------------------------|


  G
    W
    |
    /

 ~~~~~~~~~~~~~~~~~~
   +E   E  +S   E.  E  S  a      +S   +S   S  S  S
|---------------------------------------------------|
|-(15)-15-(15)-15--15-12----------------------------|
|------------------------14b16==(14)-(14)r14-12-----|
|-----------------------------------------------14--|
|---------------------------------------------------|
|---------------------------------------------------|


  Am                     D7
   H                     H
   |                     |
   /                     /

               ~~~~         ~~~
   E.  a      +S   +E. S s  E.  +E.  S
|--------------------------------------|
|--------------------------15--(15)-12-|
|-12--14b16==(14)-(14)-----------------|
|--------------------------------------|
|--------------------------------------|
|--------------------------------------|


   G
   W
   |
   /

  s S  E      +E   S  s S  s     S  a      +S   +S   S  S s
|------------------------------------------------------------|
|-15---15pb17r(15)p12-15---15pb17---15b17==(15)-(15)r15-12---|
|------------------------------------------------------------|
|------------------------------------------------------------|
|------------------------------------------------------------|
|------------------------------------------------------------|



  Am             D7
   H               H
   |               |
   /               /

       ~~~~~~~~~~
   E.  S  +E   E  +S   E.  a      +S   +S   S  S
|--------------------------------------------------|
|-15--15-(15)-15-(15)-12---------------------------|
|-------------------------14b16==(14)r(14)p12------|
|---------------------------------------------14---|
|--------------------------------------------------|
|--------------------------------------------------|


   G
   W
   |
   /

   ~~~
   E.  a      +s   Q  S  a      +E.  +Q
|-----------------------------------------|
|-----------------------------------------|
|-12--14b16==(14)r------14b16==(14)-(14)--|
|-----------------------------------------|
|-----------------------------------------|
|-----------------------------------------|


  
  Am                           D7
  H                            H
  |                            |
  /                            /

   ~~~
   E  S  S  +S   S  S      +S   S  S  S  S  S      +S   +S   S
|---------------------------------12---------------------------|
|------------------------------12----15p12---------------------|
|-14r14-14-(14)p12-14b16==(14)-------------14b16==(14)r(14)p12-|
|--------------------------------------------------------------|
|--------------------------------------------------------------|
|--------------------------------------------------------------|





  G
   W
   |
   /

                                                               ~~~~~~~
   S      +S   +S   S  S      +S   +S   S  a      +S   +S   S  S  +Q
|-15b17==(15)r(15)p12----------------------------------------------------|
|---------------------15b17==(15)r(15)p12--------------------------------|
|-----------------------------------------14b16==(14)r(14)p12------------|
|-------------------------------------------------------------14-(14)----|
|------------------------------------------------------------------------|
|------------------------------------------------------------------------|


  Am               D7                    G
  H                  H                    W
  |                  |                    |
  /                  /                    /

  S  E  S  E  S  S  +S   S  E  S  E  S    E  S  S  E  E  Q   E. T  T
|---12-14-14-15-15-(15)-17-17-15-15-14-|-14-12-12s10-12\-------------|
|--------------------------------------|--------------------12h13p12s|
|--------------------------------------|-----------------------------|
|--------------------------------------|-----------------------------|
|--------------------------------------|-----------------------------|
|--------------------------------------|-----------------------------|


  Am              D7
   H              H
   |              |
   /              /

   E. T  T E  S s S s S S +S  S   +S  S
|----------------------------------------|
|-10h12p10s8-10-8---7---5-(5)---------5--|
|-----------------------------7b9-(7)----|
|----------------------------------------|
|----------------------------------------|
|----------------------------------------|


      G
       W
       |

       /

  a   +S  S S a    +S  +S  +S  s S S  a     +E.  s E.
|-----------5-----------------------------------12----|
|---------5--------------------------15b17-(15)-------|
|-7b9-(7)-----7b9==(7)-(7)r(7)p5----------------------|
|-----------------------------------------------------|
|-----------------------------------------------------|
|-----------------------------------------------------|


  Am                                      D7
   H                                        H
   |                                        |
   /                                        /

                                                  |--------6--------|
   S     +S   S  S     +S   S  S      +S   +E   E E  S      +S   S  S
|--------------------------12-----------------------------------------|
|------------12-15b17-(15)--------------------------------------------|
|-14b16-(14)------------------14b16==(14)r(14)p12---14pb16r(14)p12----|
|------------------------------------------------------------------14-|
|---------------------------------------------------------------------|
|---------------------------------------------------------------------|


   G
   W
   |
   /

               ~~~~
   e  a      +E   +S  E. E  E       +E   +E
|--------------------------17pb19==(17)r(17)-|
|--------------------------------------------|
|-12-14b16==(14)-(14)------------------------|
|--------------------------------------------|
|--------------------------------------------|
|--------------------------------------------|



  Am                 D7
   H                   H
   |                   |
   /                   /

   E  S  s S  s S  S  +E   E S  S  e
|-18r17p15---17----------------12-14-|
|-----------------17-(17)\-----------|
|------------------------------------|
|------------------------------------|
|------------------------------------|
|------------------------------------|


  G
   W
   |
   /

   |------6-------|
   S  S  S  S  S  S  S  S S S s S s S s S E
|-15p14p12-14h15s10-12p10---8---7---5-----5-|
|---------------------------------------8-5-|
|-------------------------------------------|
|-------------------------------------------|
|-------------------------------------------|
|-------------------------------------------|


  Am                      D7                 G
  H                        H                  W
  |                        |                  |
  /                        /                  /

          |-3-|
  S S S S T T T S S S a   +S  S s S S   E.    E  S  S  +S  S E S E S E S S
|-5-------5h7p5-----------------5-----/12--|-12s10-10-(10)s8-8s7-7s5-5s3-3-|
|---5-7-8-------8-7-5---------5------------|-------------------------------|
|---------------------7b9-(7)--------------|-------------------------------|
|------------------------------------------|-------------------------------|
|------------------------------------------|-------------------------------|
|------------------------------------------|-------------------------------|


  Am            D7                       G
   H            H                        W
   |            |                        |
   /            /                        /

                                                          ~~
  +S  S E S E S E S S +S  S    +S  +S    E S S s S s  S s E. e e
|-(3)s2-2-0----------------------------|---3-5---7---10---7--5-7-|
|-----------3-1-1p0-0-(0)--------------|-------------------------|
|-------------------------2b4==(2)r(2)-|-0-----------------------|
|--------------------------------------|-------------------------|
|--------------------------------------|-------------------------|
|--------------------------------------|-------------------------|


       Am         D7           G
        H         H            W
        |         |            |
        /         /            /

        ~~~
                                                               
 a    +Q   +E. s S E S E. S   
|----------------------------|
|-3b5==(3)--(3)---3s5s3s5----|
|----------------------------|
|----------------------------|
|----------------------------|
|----------------------------| 

                                  |-----7-----|
  E.S S S T T T T T T T T T T T T S S S S S S S
|-------------------------------------------------|
|=5p3p0h3h5p3p0h3h5p3p0h3h5p3p0h3h5p3p0h3h5p3p0h==|
|-------------------------------------------------|
|-------------------------------------------------|
|-------------------------------------------------|
|-------------------------------------------------|



  Am                            D7
  H                             H
  |                             |
  /                             /

                          |-3-|
  T T T T T T T T T T T T S S S Q   a  e E
|------------------------------------------|
|-3h5p3p0h3h5p3p0h3h5p3p0h3h5p3p0--15s17---|
|------------------------------------------|
|------------------------------------------|
|------------------------------------------|
|------------------------------------------|


  G
  W
  |
  /

  S  S s  S  E  S  S s  S s  S s  S  E
|---22---22-21-21-20---20---19---19\---|
|--------------------------------------|
|--------------------------------------|
|--------------------------------------|
|--------------------------------------|
|--------------------------------------|


  Am                 D7
   H                   H
   |                   |
   /                   /

   E  S  S s  S s  S  +S   S      +E   +S   +S   S  S
|-17-17-15---14---12-(12)--------------------------------|
|-------------------------15b17==(15)-(15)r(15)p12-------|
|--------------------------------------------------14b16-|
|--------------------------------------------------------|
|--------------------------------------------------------|
|--------------------------------------------------------|


    G
    W
    |
    /

      
|---------12-------------------12-------------------12---------------------|
|------12---15p12-----------12----15p12-----------12---15p12---------------|
|-(14)-----------14b16-(14)-------------14b16-(14)-----------14b16=--------|
|--------------------------------------------------------------------------|
|--------------------------------------------------------------------------|
|--------------------------------------------------------------------------|
          
           
|--------------15b17=(15)--|
|-(14)r(14)p12-------------|
|--------------------------|
|--------------------------|
|--------------------------|
|--------------------------|





  Am                        D7
    H                         H
    |                         |
    /                         /

                                            ~~~
   +E   +S   S  E  S  S      +S   +S   E S  E.
|-(15)r(15)p12-----------------------------15--|
|--------------12-15---------------------------|
|--------------------14b16==(14)r(14)p12-------|
|----------------------------------------------|
|----------------------------------------------|
|----------------------------------------------|


  G                                         Am                 D7
   W                                          H                  H
   |                                          |                  |
   /                                          /                  /

   E.  S  +E   E  +S   S  E  S  E.    a      +E.  +S   E  S  S  +E   E Q
|-14--12-(12)------------------12--|-----------------------------------7---|
|-------------15-(15)p12-15\-------|---------------------------------------|
|----------------------------------|-14b16==(14)r(14)p12----12-(12)\-------|
|----------------------------------|---------------------14----------------|
|----------------------------------|---------------------------------------|
|----------------------------------|---------------------------------------|


  G
  W
  |
  /

  E S S +S  E S +S  E S +S  S E
|-7h8-5-(5)-7-3-(3)-5-7-(7)-3-5-|
|-------------------------------|
|-------------------------------|
|-------------------------------|
|-------------------------------|
|-------------------------------|


  Am           D7             G
  H             H              W
  |             |              |
  /             /              /

                                  ~~~
  E E E S S     S   E. E. S    E  Q.    +Q.   E
|-5-0-0---0-----0---0--0----|-12----------------|
|---5-5-5-5b6==(5)r(5)-5----|----15----(15)-----|
|---------------------------|-------------------|
|---------------------------|-------------------|
|---------------------------|-------------------|
|---------------------------|-------------------|


  Am       D7             G
   H        H              W
   |        |              |
   /        /              /

   H     a  Q   S  S  E    H     +S  S  S S  S S  S      +S
|-12----12h14--12h14p12-|---------------------------------------|
|-----------------------|-15----(15)---12---15---15pb16r(15)b17-|
|-----------------------|---------------------------------------|
|-----------------------|---------------------------------------|
|-----------------------|---------------------------------------|
|-----------------------|---------------------------------------|


  Am          D7
    H          H
    |          |
    /          /

   +Q.   E  a  Q   T  T  E.
|----------12h14--12h14p12---|
|-(15)-----------------------|
|----------------------------|
|----------------------------|
|----------------------------|
|----------------------------|


   G
   W
   |
   /

   H     +E   E  E  S      +S
|------------------------------|
|-15----(15)-12-15-------------|
|------------------14b16==(14)-|
|------------------------------|
|------------------------------|
|------------------------------|


  Am                               D7
   H                               H
   |                               |
   /                               /

   +E   +S   S  S      +S   +S   S  S  S      S  S  S  S      S  S
|------------------------------------------------------------------|
|------------------------------------------------------------------|
|-(14)r(14)p12-14b16==(14)r(14)p12-14-14pb16-14-12-14-14pb16-14-12-|
|------------------------------------------------------------------|
|------------------------------------------------------------------|
|------------------------------------------------------------------|


  G
   W
   |
   /

   S     +S   S  S     +S   S  S     +S   S  S     +S   S  S     +S   S  S
|--------------------------------------------------------------------------|
|------------12-----------12------------12-----------12-----------12-15b17-|
|-14b16-(14)----14b16-(14)----14b16-(14)---14b16-(14)---14b16-(14)---------|
|--------------------------------------------------------------------------|
|--------------------------------------------------------------------------|
|--------------------------------------------------------------------------|


  Am                                   D7
    H                                   H
    |                                   |
    /                                   /

                      |------6-------|
   +S   S  S     +S   S  S  S  S  S  S  E  E S S  E
|------12------------12----------------12\----------|
|-(15)------------------15p12----------12\----------|
|---------14b16-(14)----------14p12----12\----------|
|-----------------------------------14-------x-x\---|
|--------------------------------------------x-x\---|
|--------------------------------------------x-x\---|


  G                              Am       D7
  W                              H         H
  |                              |         |
  /                              /         /

  S S S S S E S +S  E S +S  E.   E.S +Q   +Q.   E
|---3p2p0----------------------|--------------------|
|---------3p0------------------|--------------------|
|-------------0-(0)------------|--------------------|
|-------------------4-0-(0)-2--|--------------------|
|------------------------------|-0h2-(2)--(2)-------|
|------------------------------|--------------------|


  G                        Am        D7        Am
   W                       H          H         W
   |                       |          |         |
   /                       /          /         /

   e  e  E  E Q  S S S S   S E. +Q   +Q.   E    e  e  E  E Q  S S S S
|------------------------|---3--(3)--(3)-----|------------------------|
|-12-12-12\----------3---|-------------------|-12-12-12\----------3---|
|-12-12-12\------4h5---4h|=5-----------------|-12-12-12\------4h5---4-|
|-12-12-12\--------------|-------------------|-12-12-12\--------------|
|------------------------|-------------------|------------------------|
|------------------------|-------------------|------------------------|


  Am         D7         G                        Am         D7
  H          H           W                       H          H
  |          |           |                       |          |
  /          /           /                       /          /

             ~                                              ~~
  S E. +E. S Q  +E. S    e  e  E  E Q  S S S S   S E. +E. S Q.   E
|---------------------|------------------------|---3--(3)-3s5-------|
|----------3s5--(5)---|-12-12-12\----------3---|--------------------|
|-5-2--(2)------------|-12-12-12\------4h5---4h|=5------------------|

|---------------------|-12-12-12\--------------|--------------------|
|---------------------|------------------------|--------------------|
|---------------------|------------------------|--------------------|


  G                        Am      D7        G
   W                       H       H         W
   |                       |       |         |
   /                       /       /         /

                           ~
   e  e  E  E Q  S S S S   Q   E E E E E E   W
|------------------------|-----------------|------*|
|-12-12-12\----------3---|-------------5s8-|-3----*|
|-12-12-12\------4h5---4h|=5-----4-5s7-----|------*|
|-12-12-12\--------------|----/7-----------|------*|
|------------------------|-----------------|------*|
|------------------------|-----------------|------*|





| s  slide up
| s  slide down
| h  hammer-on
| p  pull-off
| ~  vibrato
| +  harmonic
| x  Mute note
============================================================================

            
            
Suggest correction
Creating personal tab
Creating personal tab
You can edit any tab online and save it as your Personal.

You can edit, replace or remove any tab part or add personal notes – all changes will be seen only by you.

Personal tabs can be accessed anytime from any device, even offline.
Learn more »
comments
print report bad tab
guest
You may want to rate the tab now too:
select rating
Wanna post a correction for this tab? Suggest correction