Oops, an error
Loading. Please wait.

Sideways tab

version 1
version 1

Whole song

41,302 views 60 this week
9 commentsread comments
1 2 3 4 5
x 24
add to favorites
×
Save as Personal and add changes to this tab that will be seen only by you. Learn more ›
×
You can save this tab as Personal to edit and correct it or add notes. All changes will be seen only by you. Learn more »
launch autoscroll
font size
0
reset
how to read this tab
guitar tuner
edit
Autoscroll
slow
fast
+/-
esc
set tempo
stop
Author
Unregistered
[Intro]
(0:03)
e|-12------------------------------|
B|----12-10----10-8h10-10b11b10b11-|
G|----------12---------------------|
D|---------------------------------|
A|---------------------------------|
E|---------------------------------|

e|-10-12-15-12b13b12b13-15b17b15-|
B|-------------------------------|
G|-------------------------------|
D|-------------------------------|
A|-------------------------------|
E|-------------------------------|

e|-12-----------------------|
B|----12p10-10------10------|
G|-------------12-9----9-12-|
D|--------------------------|
A|--------------------------|
E|--------------------------|

e|----------------------|
B|----------------------|
G|-9--------------------|
D|---12-9h12p9-----9----|
A|--------------12---12-|
E|----------------------|

[Verse]
(0:19)
You know it ain't easy
e|---------------------|
B|-10b12-10------10----|
G|----------12-9----12-|
D|---------------------|
A|---------------------|
E|---------------------|

For these thoughts here to leave me
e|-------------------|
B|-10b12-10----10----|
G|----------12----12-|
D|-------------------|
A|-------------------|
E|-------------------|

There are no words to describe it
e|---------------------|
B|-10b12-10------10----|
G|----------12-9----12-|
D|---------------------|
A|---------------------|
E|---------------------|

In French or in English
e|---------------------------------------|
B|------10-10b12-10------10b12-10-----10-|
G|-9-12-------------12-9----------12~----|
D|---------------------------------------|
A|---------------------------------------|
E|---------------------------------------|

Cause diamonds they fade
e|-10b12~~~-10p7-|
B|---------------|
G|---------------|
D|---------------|
A|---------------|
E|---------------|

And flowers they bloom
e|-12b15-15-12b15-|
B|----------------|
G|----------------|
D|----------------|
A|----------------|
E|----------------|

And I'm telling you
e|-17b19-17-15-12-15-17-18b20p15-|
B|-------------------------------|
G|-------------------------------|
D|-------------------------------|
A|-------------------------------|
E|-------------------------------|

[Chorus]
(0:50)
That these feelings won't go away
e|--------|
B|-10b12~-|
G|--------|
D|--------|
A|--------|
E|--------|

They've been knockin me sideways
e|--------------|
B|-10b12b11b12~-|
G|--------------|
D|--------------|
A|--------------|
E|--------------|

They've been knockin me out litely
e|-12b15-10-------------|
B|-10b12----12-10-10----|
G|-------------------12-|
D|----------------------|
A|----------------------|
E|----------------------|

Whenever you come around me
e|--------------------|
B|-13b15-12-----------|
G|----------12-9------|
D|---------------9----|
A|-----------------12-|
E|--------------------|

That these feelings won't go away
e|-10b12~-|
B|--------|
G|--------|
D|--------|
A|--------|
E|--------|

They've been knockin me sideways
e|-10b12~-|
B|--------|
G|--------|
D|--------|
A|--------|
E|--------|

I keep thinking in a moment that
e|-17b19-17-15-12-15-17-18b20p15-|
B|-------------------------------|
G|-------------------------------|
D|-------------------------------|
A|-------------------------------|
E|-------------------------------|

Time will take them away
e|-------------------|
B|-13b15-12-13-12b13-|
G|-------------------|
D|-------------------|
A|-------------------|
E|-------------------|

But these feelings won't go away
e|----------------------|
B|-10b12-10----10-------|
G|----------12----12-12-|
D|----------------------|
A|----------------------|
E|----------------------|

These feelings won't go away
e|------------------------------------------------------|
B|------10b12-10b12-10b12-10b12-12b15-10----------------|
G|-9-12----------------------------------12-9-----------|
D|--------------------------------------------12-9----9-|
A|-------------------------------------------------12---|
E|------------------------------------------------------|

[Verse]
(1:45)
You know it ain't easy
e|---------------------|
B|-10b12-10------10----|
G|----------12-9----12-|
D|---------------------|
A|---------------------|
E|---------------------|

For these thoughts here to leave me
e|-------------------|
B|-10b12-10----10----|
G|----------12----12-|
D|-------------------|
A|-------------------|
E|-------------------|

There are no words to describe it
e|---------------------|
B|-10b12-10------10----|
G|----------12-9----12-|
D|---------------------|
A|---------------------|
E|---------------------|

In French or in English
e|-------------------|
B|----10----10-12-10-|
G|-12----12----------|
D|-------------------|
A|-------------------|
E|-------------------|

Cause diamonds they fade
e|-12b15-15-12b15-|
B|----------------|
G|----------------|
D|----------------|
A|----------------|
E|----------------|

And flowers they bloom
e|-17b19-17-15-12-15-17-18b20p15-|
B|-------------------------------|
G|-------------------------------|
D|-------------------------------|
A|-------------------------------|
E|-------------------------------|

And I'm telling you
e|--------------------|
B|-13b15-12-----------|
G|----------12-9------|
D|---------------9----|
A|-----------------12-|
E|--------------------|

[Chorus]
(2:15)
That these feelings won't go away
e|--------|
B|-10b12~-|
G|--------|
D|--------|
A|--------|
E|--------|

They've been knockin me sideways
e|--------------|
B|-10b12b11b12~-|
G|--------------|
D|--------------|
A|--------------|
E|--------------|

They've been knockin me out litely
e|-12b15-10-------------|
B|-10b12----12-10-10----|
G|-------------------12-|
D|----------------------|
A|----------------------|
E|----------------------|

Whenever you come around me
e|--------------------|
B|-13b15-12-----------|
G|----------12-9------|
D|---------------9----|
A|-----------------12-|
E|--------------------|

That these feelings won't go away
e|-10b12~-|
B|--------|
G|--------|
D|--------|
A|--------|
E|--------|

They've been knockin me sideways
e|-12b15-15-12b15-|
B|----------------|
G|----------------|
D|----------------|
A|----------------|
E|----------------|

I keep thinking in a moment that
e|-17b19-17-15-12-15-17-18b20p15-|
B|-------------------------------|
G|-------------------------------|
D|-------------------------------|
A|-------------------------------|
E|-------------------------------|

Time will take them away
e|-------------------|
B|-13b15-12-13-12b13-|
G|-------------------|
D|-------------------|
A|-------------------|
E|-------------------|

But these feelings won't go away
e|---------------------------------------------------------------|
B|------10----10b12----10b12----10----10b12----10b12----10b12----|
G|-9-12----12-------12-------12----12-------12-------12-------12-|
D|---------------------------------------------------------------|
A|---------------------------------------------------------------|
E|---------------------------------------------------------------|

They've been knocking me sideways
e|-----------------------------------|
B|-----------------------------------|
G|-9-12-9-12-9-12-9-9-12-9-12-9-12-9-|
D|-----------------------------------|
A|-----------------------------------|
E|-----------------------------------|

I keep thinking in a moment that
e|-12b15-------------------------------|
B|-------12b13-10----10-10h12p10h12p10-|
G|----------------12-------------------|
D|-------------------------------------|
A|-------------------------------------|
E|-------------------------------------|

Time will take them away
e|-------------------|
B|-13b15-12-13-12b13-|
G|-------------------|
D|-------------------|
A|-------------------|
E|-------------------|

But these feelings won't go away
e|--------|
B|-10b12~-|
G|--------|
D|--------|
A|--------|
E|--------|

These feelings won't go away
e|-12b15-10-------------------|
B|-10b12----12-10-10-12-12-10-|
G|----------------------------|
D|----------------------------|
A|----------------------------|
E|----------------------------|

[Bridge]
(3:23)
Well diamonds they fade
e|-10b12~-|
B|--------|
G|--------|
D|--------|
A|--------|
E|--------|

Well flowers they bloom
e|-12b15-15-12b15-|
B|----------------|
G|----------------|
D|----------------|
A|----------------|
E|----------------|

Well I'm telling you 
e|-12b15-10-------------------------|
B|-10b12----14-13-12-13-12-10h12p10-|
G|----------------------------------|
D|----------------------------------|
A|----------------------------------|
E|----------------------------------|

Well I'm telling you
e|-----------------10-12-|
B|-----------10-12-------|
G|------9-12-------------|
D|-9-12------------------|
A|-----------------------|
E|-----------------------|

Well diamonds they fade
e|-?-|
B|-?-|
G|-?-|
D|-?-|
A|-?-|
E|-?-|

Well flowers they bloom
e|-?-|
B|-?-|
G|-?-|
D|-?-|
A|-?-|
E|-?-|

Well I'm telling you
e|-17b-17-15-|
B|-----------|
G|-----------|
D|-----------|
A|-----------|
E|-----------|

Well I'm telling you
e|-17b-17-15-|
B|-----------|
G|-----------|
D|-----------|
A|-----------|
E|-----------|

[Chorus]
(3:57)
(Play while singing) These feelings won't go away
e|-15-15-15-12-10-15-12~p10-|
B|--------------------------|
G|--------------------------|
D|--------------------------|
A|--------------------------|
E|--------------------------|

(Play while singing) They've been knocking me sideways
e|-15-15-15-12-10-15-10~-10-12-15-12-|
B|-----------------------------------|
G|-----------------------------------|
D|-----------------------------------|
A|-----------------------------------|
E|-----------------------------------|

(Play while singing) They've been knocking me out litely
e|-15-15-15-15-15-15-15-11-11-|
B|----------------------------|
G|----------------------------|
D|----------------------------|
A|----------------------------|
E|----------------------------|

(Play while singing) When ever you come around me
e|-15-15-15-12-10b-10-12-12h15-10-12-10-12-12h15-10-12-10--------------------|
B|--------------------------------------------------------12-10h12p12-12-12b-|
G|---------------------------------------------------------------------------|
D|---------------------------------------------------------------------------|
A|---------------------------------------------------------------------------|
E|---------------------------------------------------------------------------|

(Play while singing) These feelings won't go away
e|-15-15-15-12-10-15-12~p10-|
B|--------------------------|
G|--------------------------|
D|--------------------------|
A|--------------------------|
E|--------------------------|

(Play while singing) They've been knocking me sideways
e|-15-15-15-12-10-15-10~-10-12-15-12-|
B|-----------------------------------|
G|-----------------------------------|
D|-----------------------------------|
A|-----------------------------------|
E|-----------------------------------|

(Play while singing) They've been knocking me out litely
e|-15-15-15-15-15-15-15-11-11-|
B|----------------------------|
G|----------------------------|
D|----------------------------|
A|----------------------------|
E|----------------------------|

(Play while singing) Time will take them away
e|-15h17p15-10-12-15b-15b-15b-10b-12-10b-------------|
B|---------------------------------------12-10h12p10-|
G|---------------------------------------------------|
D|---------------------------------------------------|
A|---------------------------------------------------|
E|-----------------------------------------inaudible-|
Suggest correction
Creating personal tab
Creating personal tab
You can edit any tab online and save it as your Personal.

You can edit, replace or remove any tab part or add personal notes – all changes will be seen only by you.

Personal tabs can be accessed anytime from any device, even offline.
Learn more »
comments
print report bad tab
9 comments total. Showing first comments.
0 reply
tomboUNI 10 Nov 23, 2005 10:10 AM

"sideways" is actually by the artist Citizen Cope on the album "the Clarence Greenwood Recordings". Carlos Santana just plays with him on that version of the song.

0 reply
wiese 46 Nov 23, 2005 05:53 PM

I got this song off of the Citizen Cope album as well, but maybe it's on a Santana album too, but either way... This tab is awesome, great job

0 reply
Tempest10531 124 Nov 25, 2006 06:13 PM

It is on the Santana album. PERIOD

guest
Wanna post a correction for this tab? Suggest correction