Oops, an error
Loading. Please wait.
We have Chord Pro version of Smooth.
It's the closest thing you can get to the original song and it has interactive parts. Check out the tab »
×
10,825 views 36 this week
no commentswrite comment
1 2 3 4 5
x 11
add to favorites
×
Save as Personal and add changes to this tab that will be seen only by you. Learn more ›
×
You can save this tab as Personal to edit and correct it or add notes. All changes will be seen only by you. Learn more »
launch autoscroll
font size
0
reset
guitar tuner
backing track
0:00
0:00
edit
Autoscroll
slow
fast
+/-
esc
set tempo
stop
Intro

G:|-----------------|----------------|-----------------|-----------------|-------9---9-----|
D:|-----------------|7---------------|-----------------|-7---------------|-------------9---|
A:|-----------------|----------8---7-|-------------7-7-|-----------8---7-|---------------7-|
E:|-----------------|----------------|--------7--------|-----------------|-----------------|
    1 & 2 & 3 & 4 &   1 & 2 & 3 & 4 &   1 & 2 & 3 & 4 &   1 & 2 & 3 & 4 &


G:|-----------------|-------9---------|-----------------|-----------------|
D:|-7---------------|-----------------|-7---------------|-----------------|
A:|-----------8---7-|-------------x-7-|-----------8---7-|-----------------|
E:|-----------------|-----------------|-----------------|---------0---4---|
    1 & 2 & 3 & 4 &   1 & 2 & 3 & 4 &   1 & 2 & 3 & 4 &   1 & 2 & 3 & 4 &

Verse 1

G:|-----------------|-------9---------|-----------------|-------9---------|
D:|-----------------|-----------------|-7---------------|-----------------|
A:|-----------8---7-|---------------7-|-----------8---7-|-----------------|
E:|5\---------------|-----------------|-----------------|-----------------|
    1 & 2 & 3 & 4 &   1 & 2 & 3 & 4 &   1 & 2 & 3 & 4 &   1 & 2 & 3 & 4 &

G:|7----------5---4-|-----------------|-----------------|-----------------|
D:|-----------------|-------6---------|7------5---------|-----------------|
A:|-----------------|---------------7-|-----------8---7-|-----------------|
E:|-----------------|-----------------|-----------------|-------0-0---0---|
    1 & 2 & 3 & 4 &   1 & 2 & 3 & 4 &   1 & 2 & 3 & 4 &   1 & 2 & 3 & 4 &

G:|-----------------|-------9---------|-----------------|-------9-------x-|
D:|7----------------|-----------------|7----------------|-----------------|
A:|-----------8---7-|-------------x-7-|-----------8---7-|-----------------|
E:|-----------------|-----------------|-----------------|-----------------|
    1 & 2 & 3 & 4 &   1 & 2 & 3 & 4 &   1 & 2 & 3 & 4 &   1 & 2 & 3 & 4 &

G:|7----------5---4-|-----------------|-----------------|-----------------|
D:|-----------------|-------6-------6-|7----7-5---------|-----------------|
A:|-----------------|-------------7---|-----------8---7-|-----------------|
E:|-----------------|-----------------|-----------------|---------0-0-0-0-|
    1 & 2 & 3 & 4 &   1 & 2 & 3 & 4 &   1 & 2 & 3 & 4 &   1 & 2 & 3 & 4 &


Chorus Pt 1

G:|-----------------|-----------------|-----------------|-----------------|
D:|-7---------------|-----------------|-7---------------|-----------------|
A:|-------0---8---7-|7------------7-7-|---------0-8---7-|-------------7-7-|
E:|-----------------|-------7-7-------|-----------------|-----x-7-7-------|
    1 & 2 & 3 & 4 &   1 & 2 & 3 & 4 &   1 & 2 & 3 & 4 &   1 & 2 & 3 & 4 &

G:|-----------------|-----------------|-----------------|-----------------|
D:|-7---------------|-----------------|-----------------|-----------------|
A:|-------0-0-8---7-|-7-----------7-7\|-5---5-0-3---3-2-|---2-0-----------|
E:|-----------------|-------7-7-------|-----------------|-------3-----3---|
    1 & 2 & 3 & 4 &   1 & 2 & 3 & 4 &   1 & 2 & 3 & 4 &   1 & 2 & 3 & 4 &


G:|-----------------|-----------------|
D:|-----------0-1-2-|-----------------|
A:|-----------------|-----------------|
E:|-2---2-\---------|-0-0-0-0-0-0-0-0-|
    1 & 2 & 3 & 4 &   1 & 2 & 3 & 4 &

Chorus Pt 2

G:|------------------|-----------------|------------------|-----------------|
D:|-----------3------|-----------------|-----------3------|-----------------|
A:|---------------5h6|-7-7-5-7---------|---------------5h6|h7-7-5-6-7-------|
E:|-5---3-5----------|---------7-0-3-0-|-5-5-3-5----------|-----------0-3-0-|
    1 & 2 & 3 & 4 &    1 & 2 & 3 & 4 &   1 & 2 & 3 & 4 &   1 & 2 & 3 & 4 &


G:|------------------|-----------------|-----------------|-----------------|
D:|------------3-----|-----------------|-----------------|-----------------|
A:|---------------2/-|-7-7-5h7-----7---|-5---------5---7-|-----------------|
E:|-5-5-3-5----------|---------0-------|-----------------|-----------------|
    1 & 2 & 3 & 4 &   1 & 2 & 3 & 4 &   1 & 2 & 3 & 4 &   1 & 2 & 3 & 4 &



G:|-----------------|-----------------|-----------------|-------------------|
D:|-7---7-5---------|---------------5-|-7---7-5---------|-------------------|
A:|-----------8---7-|---------5-6-7---|-----------8---7\|-------------------|
E:|-----------------|-------7---------|-----------------|---0-0-0-3---3/4---|
    1 & 2 & 3 & 4 &   1 & 2 & 3 & 4 &   1 & 2 & 3 & 4 &   1 & 2 & 3 & 4   &

Verse 2

G:|-----------------|-------9-9-------|-----------------|---------9-9-----|
D:|-----------------|-------------9---|-7---------------|---------------9-|
A:|-----------8---7-|---------------7-|-----------8---7-|-----------------|
E:|-5---------------|-----------------|-----------------|-----------------|
    1 & 2 & 3 & 4 &   1 & 2 & 3 & 4 &   1 & 2 & 3 & 4 &   1 & 2 & 3 & 4 &

G:|5/7--------5---4-|-----------------|-----------------|---9-7-----------|
D:|---------7-------|-------6---------|-7---7-5---------|-------9---------|
A:|-----------------|-------------7---|-----------8---7-|---------7-------|
E:|-----------------|-----------------|-----------------|-------------7\--|
    1 & 2 & 3 & 4 &   1 & 2 & 3 & 4 &   1 & 2 & 3 & 4 &   1 & 2 & 3 & 4 &


G:|-----------------|-----------------|-----------------|-------9-9-------|
D:|-----------------|-------9-9-------|-7---------------|---------------0-|
A:|-----------8---7-|-------------7---|-----------8---7-|-----------------|
E:|-5---------------|-----------------|-----------------|-----------------|
    1 & 2 & 3 & 4 &   1 & 2 & 3 & 4 &   1 & 2 & 3 & 4 &   1 & 2 & 3 & 4 &


G:|-7---9---5-----4-|---------------4-|-----------------|-----------------|
D:|-------0---------|-------6-----6---|-7---7-5---------|-----------------|
A:|-----------------|-----------7-----|---7-------8---7\|-----------------|
E:|-----------------|-----------------|-----------------|-0-0-2-2-3---4---|
    1 & 2 & 3 & 4 &   1 & 2 & 3 & 4 &   1 & 2 & 3 & 4 &   1 & 2 & 3 & 4 &

Chorus Pt 1

G:|-----------------|-----------------|-----------------|-----------------|
D:|-------7---------|-----------------|-7---------------|-----------------|
A:|-----------8---7-|-7-----------7-7-|-------0---8---7-|-7-----------7-7-|
E:|-5---------------|-------7-7-------|-----------------|-------7-7-------|
    1 & 2 & 3 & 4 &   1 & 2 & 3 & 4 &   1 & 2 & 3 & 4 &   1 & 2 & 3 & 4 &

G:|-----------------|-----------------|-----------------|-----------------|
D:|-7---------------|-----------------|-----------------|-----------------|
A:|---------0-8---7-|-7-7---------7-\-|-5---5---3---3-2-|---2-0-----------|
E:|-----------------|-------7-7-------|-----------------|-------3-3---3---|
    1 & 2 & 3 & 4 &   1 & 2 & 3 & 4 &   1 & 2 & 3 & 4 &   1 & 2 & 3 & 4 &


G:|-----------------|-----------------|
D:|---------------2-|-----------------|
A:|-----------2-----|-----------7-----|
E:|-2---2/7---------|---0-0-0-0---0-3-|
    1 & 2 & 3 & 4 &   1 & 2 & 3 & 4 &

Chorus Pt 2

G:|------------------|-----------------|------------------|-----------------|
D:|-----------3------|-----------------|-----------3------|-----------------|
A:|---------------5h6|-7-7-5-7---------|---------------5h6|-7-7-5-7---------|
E:|-5-5-3-5----------|-----------0-3-0-|-5-5-3-5----------|-----------0-3-0-|
    1 & 2 & 3 & 4 &    1 & 2 & 3 & 4 &   1 & 2 & 3 & 4 &    1 & 2 & 3 & 4 &


G:|------------------|-----------------|-----------------|-----------------|
D:|------------3-----|-----------------|-----------------|-----------------|
A:|---------------5h6|-7-7-5-7-----7-6-|-5---------5---7/|-----------------|
E:|-5-5-3-5----------|----------0------|-----------------|-----------------|
    1 & 2 & 3 & 4 &    1 & 2 & 3 & 4 &   1 & 2 & 3 & 4 &   1 & 2 & 3 & 4 &


G:|-----------------|
D:|-----------------|
A:|-----------------|
E:|-----------------|
    1 & 2 & 3 & 4 &


Solo

G:|-----------------|-----------------|-----------------|-----------------|
D:|-7---------------|-------9-9-------|-7---------------|-------9-9-------|
A:|-----------8---7-|-------------7---|-----------8---7-|-7-----------7-7-|
E:|-----------------|-----------------|-----------------|-----------------|
    1 & 2 & 3 & 4 &   1 & 2 & 3 & 4 &   1 & 2 & 3 & 4 &   1 & 2 & 3 & 4 &


G:|-----------------|-----------------|-----------------|-------------------|
D:|-7---------------|-------9-9-------|-7---------------|-------------------|
A:|-----------8---7-|-------------7---|-----------8---7-|-------7-7---7/13\-|
E:|-----------------|-----------------|-----------------|-------------------|
    1 & 2 & 3 & 4 &   1 & 2 & 3 & 4 &   1 & 2 & 3 & 4 &   1 & 2 & 3 & 4 &


G:|-----------------|-----------------|-----------------|-----------------|
D:|-------5---------|-----------------|-7---7-5---------|---------------5-|
A:|-0---------8---7-|-------------7-7-|---7-------8---7-|-------5---6-7---|
E:|-----------------|-------7-7-------|-----------------|---7-7-----------|
    1 & 2 & 3 & 4 &   1 & 2 & 3 & 4 &   1 & 2 & 3 & 4 &   1 & 2 & 3 & 4 &


G:|-----------------|-----------------|-----------------|-----------------|
D:|-7---7-5---------|-----------------|-----------------|-----------------|
A:|---7-------8---7-|---------7---10\-|-5---5---3---3-2-|---2-0-----------|
E:|-----------------|-------7---------|---5-------------|-------3-3---3---|
    1 & 2 & 3 & 4 &   1 & 2 & 3 & 4 &   1 & 2 & 3 & 4 &   1 & 2 & 3 & 4 &


G:|-----------------|----------------|
D:|-----------0-1-2-|----------------|
A:|----------------|--------------9\-|
E:|-2---2/7---------|-0-0-2-2-3-3----|
    1 & 2 & 3 & 4 &   1 & 2 & 3 & 4 &


Chorus Pt 2

G:|------------------|-----------------|-------------------|-----------------|
D:|------------------|-----------------|-------------------|-----------------|
A:|-----------2/--5h6|-7-7-5-6-7-------|----------5/8\--5h6|-7-7-5-5-3-3-2-2-|
E:|-5-5-3-5-5--------|-----------0-3-0-|-5-5-3-5-----------|-----------------|
    1 & 2 & 3 & 4 &    1 & 2 & 3 & 4 &   1 & 2 & 3  & 4 &    1 & 2 & 3 & 4 &

G:|------------------|-----------------|-----------------|-----------------|
D:|------------------|-----------------|-----------------|-----------------|
A:|-----------5/--5h6|-7-7-5h7-----7-6-|-5---------5---7\|------57---------|
E:|-5-5-3-5----------|---------0-0-----|-----------------|--------xx-0-3-4-|
    1 & 2 & 3 & 4 &    1 & 2 & 3 & 4 &   1 & 2 & 3 & 4 &   1 & 2 & 3 & 4 &

Outro

G:|-----------------|-----------------|-----------------|-----------------|
D:|-----------------|-----------------|-----------------|-----------------|
A:|-----------8---7-|---------5-6-7---|-----------8---7-|---------5-6-7---|
E:|-5---5-5---------|-------7-------0-|-5-5-5-5---------|-------7-------0-|
    1 & 2 & 3 & 4 &   1 & 2 & 3 & 4 &   1 & 2 & 3 & 4 &   1 & 2 & 3 & 4 &

G:|-----------------|----------------|-----------------|--------------------------|
D:|-----------------|----------------|-----------------|----------12-12-----------|
A:|-----------8---7-|-7-7----5-6-7---|-----------8---7-|-7-4\7/---------14-12-7\--|
E:|-5-5-5-5---------|------7-------0-|-5---5-5---------|-------12/--------------0-|
    1 & 2 & 3 & 4 &   1 & 2 & 3 & 4 &   1 & 2 & 3 & 4 &   1 & 2  &      3   & 4 &

G:|-----------------|-----------------|-----------------|-----------------|
D:|-----------------|-----------------|-----------------|-----------------|
A:|-0-0-0-----------|---7---2-5---3-2-|-0---0-----------|-----5-6-7-------|
E:|-------3---1---0-|-0---------------|-------3---1---0-|-0---------0-3-4-|
    1 & 2 & 3 & 4 &   1 & 2 & 3 & 4 &   1 & 2 & 3 & 4 &   1 & 2 & 3 & 4 &


G:|-----------------|-----------------|-----------------|-----------------|
D:|-----------------|-----------------|-----------------|-----------------|
A:|-0-0-0-----------|-------567-------|-0-0-0-----------|-----------------|
E:|-------3---1---0-|-0-0-0-----0-3-4-|-------3-3-1-1-0-|-0-0-0-0-3-0-3-4-|
    1 & 2 & 3 & 4 &   1 & 2 & 3 & 4 &   1 & 2 & 3 & 4 &   1 & 2 & 3 & 4 &


G:|-----------------|-----------------|-----------------|-----------------|
D:|-----------------|-----------------|-----------------|-----------------|
A:|-0---0-----------|-------567-------|-----------------|-----------5-7---|
E:|-------3---1---0-|-0----7----0-3-4-|-5-0-5-3---1---0-|-0-----0-5/----0-|
    1 & 2 & 3 & 4 &   1 & 2 & 3 & 4 &   1 & 2 & 3 & 4 &   1 & 2 & 3 & 4 &


G:|-----------------|-----------------|-----------------|-------789-------|
D:|-----------------|-----------------|-----------------|----789---78955--|
A:|-----------------|-------567-------|-0-0-0-----------|-567-----------75|
E:|-3\0-5-3---1---0-|-0-0-0-----0-3-4-|-------3---1---0-|-----------------|
    1 & 2 & 3 & 4 &   1 & 2 & 3 & 4 &   1 & 2 & 3 & 4 &   1 & 2 & 3 & 4 &

G:|-----------------|
D:|-----------------|
A:|-0-7-------------|
E:|-----------------|


An extended and amended version of the tab already submitted by from David Oleniacz so 
much credit to him.
Suggest correction
Creating personal tab
Creating personal tab
You can edit any tab online and save it as your Personal.

You can edit, replace or remove any tab part or add personal notes – all changes will be seen only by you.

Personal tabs can be accessed anytime from any device, even offline.
Learn more »
comments
print report bad tab
guest
You may want to rate the tab now too:
select rating
Wanna post a correction for this tab? Suggest correction