Oops, an error
Loading. Please wait.

Santa Marta - Kingston - New Orleans tab

version 2
version 2

Whole song

20 views 3 this week
no commentswrite comment
1 2 3 4 5
3 more votes to show rating
add to favorites
×
Save as Personal and add changes to this tab that will be seen only by you. Learn more ›
×
You can save this tab as Personal to edit and correct it or add notes. All changes will be seen only by you. Learn more »
launch autoscroll
font size
0
reset
how to read this tab
guitar tuner
edit
Autoscroll
slow
fast
+/-
esc
set tempo
stop
Punteado del intro.
Es mejor si se toca durantre todas las estrofas de la cancion,
excepto el coro
(se puede tocar muy facilmente dejando la mano en mi mayor,
 y moviendo el dedo meñique para tocar en ciertas partes):

E-------------------------
A-2-2---------------------
D-----------------2-------
G-----------1---1-------1-
B-----0-2-0---0-----2-0---
E-------------------------

E-------------------------
A-------------------------
D-2-2-------------2-------
G-----------1---1-------1-
B-----0-2-0---0-----2-0---
E-------------------------

E-------------------------
A-4-4---------------------
D-----------------2-------
G-----------1---1-------1-
B-----0-2-0---0-----2-0---
E-------------------------

E--------------2---2---2---
A-2-2------------0---0---0-
D--------------------------
G------------1-------------
B------0-2-0---------------
E--------------------------
     B
Muy sola se quedó la ciudad
                  E
se fueron de vacaciones
    A                 E
la situa no me deja viajar
                    B
me amarro los pantalones
B
mejor voy al Parque Nacional
                     E
tranquilo en mi bicicleta
    A                 E
perfecta se pone la ciudad
               B
para tomar una siesta.


   B
Soñando veo las fiestas del mar
                   E
que salgo de Santa Marta
    A                    E
vestido de marino en un barco
               B
de la Grancolombiana
     B
y al poco tiempo de navegar
                        E
ya estoy en Kingston, Jamaica
   A                     E
y J.J que me dice 'no problem
                   B
only peace in my island'.


    B
Y ajá,
                      E
Voy disfrutando el paisaje
A                    E
surcando la ruta del sol
               B
no necesito pasaje.


    B
Y ajá,
                      E
te esperaré para el viaje
A                            E
de cumbia, saydeco y rock'n roll
                     B
ya preparé tu equipaje.

(B-E-A-E-B de fondo)
(acordeón pasado a guitarra)

E-------------------------------------------------
A-------------------------------------------------
D---------------------------------------------6---
G---------6-6-4-4---------6-6-4-4---------6-4---4-
B-7-7-4-4---------7-7-4-4---------7-7-4-4---------
E-------------------------------------------------

E--------------------------
A--------------------------
D--6-6-----------------6---
G------4-6-4-------6-4---4-
B------------4-7-4---------
E--------------------------

E-------------------------------------------------
A-------------------------------------------------
D---------------------------------------------6---
G---------6-6-4-4---------6-6-4-4---------6-4---4-
B-7-7-4-4---------7-7-4-4---------7-7-4-4---------
E-------------------------------------------------

E-------------------------------------
A-------------------------------------
D-----------------------------------6-
G-----------------------------6-6-4---
B-7-7-7-7-----7---7-----7-7-4---------
E---------4-4---4---7-4---------------
      B
y al Mississippi vimos al fin
                    E
la niebla en la madrugada
   A                        E
bailamos saydeco en Nueva Orleans
                     B
un vallenato en Louisiana
B
parece no voy a depertar
                   E
no acaba mi itinerario
      A                      E
las gaitas yo comienzo a escuchar
                      B-A-B-B-A-A#-B
muy cerca está Maracaibo.


    B
Y ajá,
                     E
voy disfrutando del viaje
A                        E
surcando voy la ruta del sol
               B
no necesito pasaje.


   B
Y ajá,
                      E
te esperaré en el paisaje
A                            E
de cumbia, saydeco y rock'n roll
                   B
ya preparé tu equipaje.

(ESTA PARTE EN ECORDEON SI ME TIENE PERDIDO,
 PERO SE PUEDE IMPROVISAR TOCANDO B-E-A-E-B)

     B
Prendido estaba ya el carnaval
                        E
cuando llegué a Barranquilla
     A                     E
en Ciénaga fiestas del caimán
                       B
parranda en la Alta Guajira
   B
quizás mañana vuelva a viajar
                     E
y me regrese p'al Valle
   A                     E
Colacho volverá al festival
                  B
ya preparé tu equipaje.

            
            
Suggest correction
Creating personal tab
Creating personal tab
You can edit any tab online and save it as your Personal.

You can edit, replace or remove any tab part or add personal notes – all changes will be seen only by you.

Personal tabs can be accessed anytime from any device, even offline.
Learn more »
Give kudos to tab author, rate the tab!
1 2 3 4 5
comments
print report bad tab
guest
Wanna post a correction for this tab? Suggest correction