Oops, an error
Loading. Please wait.

Call Me Maybe Bass Tab

version 1
version 1

Whole song

Interactive

24,581 views 24 this week
2 commentsread comments
1 2 3 4 5
please rate
add to favorites
launch autoscroll
font size
0
reset
guitar tuner
Tab Pro tools
  • play this tab
  • loop segment
  • change instrument
  • show fretboard
  • metronome
×
Best way to learn
"Call Me Maybe"
Autoscroll
slow
fast
+/-
esc
set tempo
stop
Contributor
ARTIST: Carly Rae Jepsen
SONG: Call Me Maybe

-----------------------------------------|
-----------------------------------------|
Probably best not played with a pick.
Fell free to make corrections below;
bit of a rushed tab.
-----------------------------------------|
-----------------------------------------|


Verse:
G|------------------------------------------------------------------|
D|*----------------------------------------------------------------*|
A|*3-3-3-3-3-3-3-10-10-10-10-10-10-10-3-3-3-3-3-3-3-5-5-5-5-5-5-5-5*|
E|------------------------------------------------------------------|

Chorus:
G|-----------------------------------------------------------------|
D|*--------------5-------------------3--------------5-------------*|
A|*3----------------5-5-----------------3-3------------5-5--------*|
E|-----------------------------------------------------------------|

Break

Verse

Chorus x2

Bridge
G|-----------------------------------------------------------------|
D|*--------------5-------------------3--------------5-------------*|
A|*3----------------5-5-----------------3-3------------5-5--------*|
E|-----------------------------------------------------------------|

Chorus until end

-----------------------------------------|
-----------------------------------------|
| /  slide up
| \  slide down
| h  hammer-on
| b  bend note
| p  pull-off
| ~  let ring
| +  harmonic
| x  mute note
| s  slap note
comments
We did not receive enough feedback on this tab! Please rate:
print report bad tab
1 2 3 4 5
2 comments total.
0 reply
SpacyTheStone wrote on September 16 2012, 05:32 pm

This is close but it isn't right.

verse =
|------------------------------------------------------|
|--------------9-9---------------2-2---------------9-9-|
|3-3-3-3-3-3-3-----5-5-5-5-5-5-5-----3-3-3-3-3-3-3-----|
|------------------------------------------------------|

|----------------|
|----------------| Just repeat that for the verse
|5-5-5-5-5-5-5-5-|
|----------------|

The chorus is like this:

|---------------------------------------|
|----5---------2---------5---------2----|
|3-----5-5-------3-3-------5-5-------3-3|
|---------------------------------------|

and that it for the chorus, just repeat that.

The main problem with your tab was that you were hitting an F during the chorus instead of an E. Otherwise it would work but if you listen carefully I believe my tab is how the song actually goes.

0 reply
SpacyTheStone wrote on September 16 2012, 05:36 pm

Sorry I made a typo above the verse is actually this:

|------------------------------------------------------|
|--------------5-5---------------2-2---------------5-5-|
|3-3-3-3-3-3-3-----5-5-5-5-5-5-5-----3-3-3-3-3-3-3-----|
|------------------------------------------------------|

|----------------|
|----------------|
|5-5-5-5-5-5-5-5-|
|----------------|

I want to post or [tab]
guest
You may want to rate the tab now too:
select rating
Please do not post tabs as comments. Select "correction" instead!