Oops, an error
Loading. Please wait.

Call Me Maybe Tab

version 3
version 3
74,425 views 1 this week
no commentswrite comment
1 2 3 4 5
x 8
add to favorites
launch autoscroll
font size
0
reset
how to read this tab
guitar tuner
Autoscroll
slow
fast
+/-
esc
set tempo
stop
Help us to improve Ultimate-Guitar.com Take our survey!
×
Author
Difficulty
intermediate
Carly Rae Jepsen, Call Me Maybe

Intro (played quietly on clean channel)

---------------------------------------------------------|
---------------------------------------------------------|
---------------------------------------------------------|
--------------5---------------------------5--------------| x3
--3-3-3-3-3-3---5-5-5-5-5-5-7-3-3-3-3-3-3---5-5-5-5-5-5--|
---------------------------------------------------------|

Chorus Lead (Overdrive)

--------------------------------------|
-----8---------------8----------------|
--5--7--7-7--9--5-5--7--7-7-----------|
--5--5--7-7--9--5-5--5--7-7-----------|
--3-----5-5--7--3-3-----5-5-----------|
--------------------------------------|

-------  ------------|
-------  ------------|
--7h9--  -(12p9p7h9)-| (x32)
-------  ------------|
-------  ------------|
-------  ------------|

Chorus Rhythm (Overdrive)

--------------------------------------|
-----8---------------8----------------|
--5--7--7-7--9--5-5--7--7-7-----------|
--5--5--7-7--9--5-5--5--7-7-----------| x4
--3-----5-5--7--3-3-----5-5-----------|
--------------------------------------|

Verse (Clean)

---------------------------------------------------------|
---------------------------------------------------------|
---------------------------------------------------------|
--------------5---------------------------5--------------| x3
--3-3-3-3-3-3---5-5-5-5-5-5-7-3-3-3-3-3-3---5-5-5-5-5-5--|
---------------------------------------------------------|
Chorus Lead (Overdrive)

--------------------------------------|
-----8---------------8----------------|
--5--7--7-7--9--5-5--7--7-7-----------|
--5--5--7-7--9--5-5--5--7-7-----------|
--3-----5-5--7--3-3-----5-5-----------|
--------------------------------------|

-------  ------------|
-------  ------------|
--7h9--  -(12p9p7h9)-| (x32)
-------  ------------|
-------  ------------|
-------  ------------|

Chorus Rhythm (Overdrive)

--------------------------------------|
-----8---------------8----------------|
--5--7--7-7--9--5-5--7--7-7-----------|
--5--5--7-7--9--5-5--5--7-7-----------| x4
--3-----5-5--7--3-3-----5-5-----------|
--------------------------------------|

After Chorus Lead (Overdrive)

--15-14-----------------15-14--------------------|
--------15--------------------15-----------------|
-----------14-14h16-12-----------14-14h16-14h16--|
-------------------------------------------------| x2
-------------------------------------------------|
-------------------------------------------------|

After Chorus Rhythm (Overdrive)

--------------------------------------|
-----8---------------8----------------|
--5--7--7-7--9--5-5--7--7-7-----------|
--5--5--7-7--9--5-5--5--7-7-----------| x4
--3-----5-5--7--3-3-----5-5-----------|
--------------------------------------|

Bridge Both Guitars (Overdrive)

--------------------------------------|
-----8---------------8----------------|
--5--7--7-7--9--5-5--7--7-7-----------|
--5--5--7-7--9--5-5--5--7-7-----------| x2
--3-----5-5--7--3-3-----5-5-----------|
--------------------------------------|

Chorus Lead (Overdrive)

--------------------------------------|
-----8---------------8----------------|
--5--7--7-7--9--5-5--7--7-7-----------|
--5--5--7-7--9--5-5--5--7-7-----------|
--3-----5-5--7--3-3-----5-5-----------|
--------------------------------------|

-------  ------------|
-------  ------------|
--7h9--  -(12p9p7h9)-| (x32)
-------  ------------|
-------  ------------|
-------  ------------|

Chorus Rhythm (Overdrive)

--------------------------------------|
-----8---------------8----------------|
--5--7--7-7--9--5-5--7--7-7-----------|
--5--5--7-7--9--5-5--5--7-7-----------| x4
--3-----5-5--7--3-3-----5-5-----------|
--------------------------------------|

After Chorus Lead (Overdrive)

--15-14-----------------15-14--------------------|
--------15--------------------15-----------------|
-----------14-14h16-12-----------14-14h16-14h16--|
-------------------------------------------------| x2
-------------------------------------------------|
-------------------------------------------------|

After Chorus Rhythm (Overdrive)

--------------------------------------|
-----8---------------8----------------|
--5--7--7-7--9--5-5--7--7-7-----------|
--5--5--7-7--9--5-5--5--7-7-----------| x4
--3-----5-5--7--3-3-----5-5-----------|
--------------------------------------|
Suggest correction
comments
print report bad tab
guest
You may want to rate the tab now too:
select rating
Wanna post a correction for this tab? Suggest correction