Oops, an error
Loading. Please wait.

Call Me Maybe Bass Tab

version 4
version 4

Whole song

Interactive

2,671 views 1 this week
no commentswrite comment
1 2 3 4 5
1 last vote to show rating
add to favorites
launch autoscroll
font size
0
reset
guitar tuner
Autoscroll
slow
fast
+/-
esc
set tempo
stop
Help us to improve Ultimate-Guitar.com Take our survey!
×
Author
Difficulty
novice
This song is simple and catchy the verse goes like this:

G|----------------------------------------------------------------------|
D|--------------5-5---------------2-2---------------5-5-----------------|
A|3-3-3-3-3-3-3-----5-5-5-5-5-5-5-----3-3-3-3-3-3-3------5-5-5-5-5-5-5-5|
E|----------------------------------------------------------------------|

Just repeat that for the verse

and for the chorus just repeat the following:

G|--------------------------|
D|-----5-------2-------5----|
A|3------5-5-----3-3-----5-5|
E|--------------------------|
Suggest correction
Give kudos to tab author, rate the tab!
1 2 3 4 5
comments
print report bad tab
guest
You may want to rate the tab now too:
select rating
Wanna post a correction for this tab? Suggest correction