Oops, an error
Loading. Please wait.

Call Me Maybe Bass Tab

version 5
version 5

Whole song

Interactive

1,229 views 1 this week
no commentswrite comment
1 2 3 4 5
please rate
add to favorites
launch autoscroll
font size
0
reset
guitar tuner
Autoscroll
slow
fast
+/-
esc
set tempo
stop
Help us to improve Ultimate-Guitar.com Take our survey!
×
Author
Call Me Maybe
Carly Rae Jepsen
Tabbed by: avill616@yahoo.com

Verse
G|--------------------------------------------------|
D|--------------------------------------------------|
A|--------------------------3--3--3--3---5--5--5--5-|3x
E|-3--3--3--3---0--0--0--0--------------------------|

Chorus 
G|-----------------------------|    
D|-----------------------------|    
A|-------------3--3-3---5--5-5-|4x  
E|-3---0--0-0------------------|    

Repeat verse
Repeat chorus

Bridge 
G|-------------------------------------------------------------------|
D|-------------------------------------------------------------------|
A|----------------------------------3-3-3-3-3-3-3-3--5-5-5-5-5-5-5-5-|2x
E|-3-3-3-3-3-3-3-3--0-0-0-0-0-0-0-0----------------------------------|

Repeat chorus
Repeat bridge
Suggest correction
Give kudos to tab author, rate the tab!
1 2 3 4 5
comments
print report bad tab
guest
You may want to rate the tab now too:
select rating
Please do not post tabs as comments. Select "correction" instead!