Oops, an error
Loading. Please wait.
We have Chord Pro version of Call Me Maybe.
It's the closest thing you can get to the original song and it has interactive parts. Check out the tab »
×
68,189 views 57 this week
6 commentsread comments
1 2 3 4 5
x 15
add to favorites
×
Save as Personal and add changes to this tab that will be seen only by you. Learn more ›
launch autoscroll
font size
0
reset
how to read this tab
guitar tuner
backing track
0:00
0:00
Autoscroll
slow
fast
+/-
esc
set tempo
stop
Author
Difficulty
novice
-------------------------------------------------------------------------------
                             Call Me Maybe - Carly Rae Jepsen
-------------------------------------------------------------------------------
Tabbed by: Hywel Evans
E-mail: hywelhwyaden@gmail.com

Tuning: Standard

e|----------------------------------------------------------------------|
B|---0-0-0-0-0---0----0-0-0-0-0---0----0-0-0-0-0---------------3-0------|
G|-------------2----------------2----------------2-2----22-0-0----------| (x2)
D|----------------------------------------------------------------------|
A|----------------------------------------------------------------------|
E|----------------------------------------------------------------------|

e|------------------------------------------------3-3-3-3-3-3-5-7-------|
B|---3-3-0-------3-3-3-0---------3-3-3-0--------------------------------|
G|---------2-0-----------2-0-------------2-0----------------------------|
D|----------------------------------------------------------------------|
A|----------------------------------------------------------------------|
E|----------------------------------------------------------------------|

e|---3-----3-------------7--3----3-7-8-7-3--------3-7-5-5-3--------|
B|-----0-3---3-----0-0-3-------------------------------------------| (x4)
G|-----------------------------------------------------------------|
D|-----------------------------------------------------------------|
A|-----------------------------------------------------------------|
E|-----------------------------------------------------------------|

e|----------------------------------------------------------------------|
B|---0-0-0-0-0---0----0-0-0-0-0---0----0-0-0-0-0---------------3-0------|
G|-------------2----------------2----------------2-2----22-0-0----------| (x2)
D|----------------------------------------------------------------------|
A|----------------------------------------------------------------------|
E|----------------------------------------------------------------------|


e|------------------------------------------------3-3-3-3-3-3-5-7-------|
B|---3-3-0-------3-3-3-0---------3-3-3-0--------------------------------|
G|---------2-0-----------2-0-------------2-0----------------------------|
D|----------------------------------------------------------------------|
A|----------------------------------------------------------------------|
E|----------------------------------------------------------------------|


e|---3-----3-------------7--3----3-7-8-7-3--------3-7-5-5-3--------|
B|-----0-3---3-----0-0-3-------------------------------------------| (x4)
G|-----------------------------------------------------------------|
D|-----------------------------------------------------------------|
A|-----------------------------------------------------------------|
E|-----------------------------------------------------------------|

Hopefully I've helped you
Suggest correction
comments
print report bad tab
6 comments total. Showing first comments.
0 reply
richcecere 10 Feb 16, 2013 05:49 AM

I think the the last part of "crayZE" is a 3 on e

0 reply
nincompoop 101 Mar 24, 2013 12:38 PM

I'm pretty sure there's an actual guitar part in the actual song--in the chorus at some parts there's some chords.

0 reply
lucy*guitar98 21 Jun 06, 2013 10:35 AM

this is just the singing part

guest
You may want to rate the tab now too:
select rating
Wanna post a correction for this tab? Suggest correction