Oops, an error
Loading. Please wait.

Call Me Maybe Tab

version 6
version 6

Interactive

65,399 views 48 this week
6 commentsread comments
1 2 3 4 5
accurate
x 12
add to favorites
launch autoscroll
font size
0
reset
how to read this tab
guitar tuner
Autoscroll
slow
fast
+/-
esc
set tempo
stop
Help us to improve Ultimate-Guitar.com Take our survey!
×
Author
Difficulty
novice
-------------------------------------------------------------------------------
                             Call Me Maybe - Carly Rae Jepsen
-------------------------------------------------------------------------------
Tabbed by: Hywel Evans
E-mail: hywelhwyaden@gmail.com

Tuning: Standard

e|----------------------------------------------------------------------|
B|---0-0-0-0-0---0----0-0-0-0-0---0----0-0-0-0-0---------------3-0------|
G|-------------2----------------2----------------2-2----22-0-0----------| X2
D|----------------------------------------------------------------------|
A|----------------------------------------------------------------------|
E|----------------------------------------------------------------------|

e|------------------------------------------------3-3-3-3-3-3-5-7-------|
B|---3-3-0-------3-3-3-0---------3-3-3-0--------------------------------|
G|---------2-0-----------2-0-------------2-0----------------------------|
D|----------------------------------------------------------------------|
A|----------------------------------------------------------------------|
E|----------------------------------------------------------------------|

e|---3-----3-------------7--3----3----------------3-7-5-5-3--------|
B|-----0-3---3-----0-0-3-----------0-1-0---------------------------| X4
G|---------------------------------------0-------------------------|
D|-----------------------------------------------------------------|
A|-----------------------------------------------------------------|
E|-----------------------------------------------------------------|

e|----------------------------------------------------------------------|
B|---0-0-0-0-0---0----0-0-0-0-0---0----0-0-0-0-0---------------3-0------|
G|-------------2----------------2----------------2-2----22-0-0----------| X2
D|----------------------------------------------------------------------|
A|----------------------------------------------------------------------|
E|----------------------------------------------------------------------|


e|------------------------------------------------3-3-3-3-3-3-5-7-------|
B|---3-3-0-------3-3-3-0---------3-3-3-0--------------------------------|
G|---------2-0-----------2-0-------------2-0----------------------------|
D|----------------------------------------------------------------------|
A|----------------------------------------------------------------------|
E|----------------------------------------------------------------------|


e|---3-----3-------------7--3----3----------------3-7-5-5-3--------|
B|-----0-3---3-----0-0-3-----------0-1-0---------------------------| X4
G|---------------------------------------0-------------------------|
D|-----------------------------------------------------------------|
A|-----------------------------------------------------------------|
E|-----------------------------------------------------------------|

Hopefully I've helped you
Suggest correction
comments
print report bad tab
6 comments total. Showing first comments.
0 reply
richcecere 10 wrote on February 16 2013, 10:49 am

I think the the last part of "crayZE" is a 3 on e

0 reply
hywelhwyaden 78 wrote on February 16 2013, 11:20 am

you're right, thanks for the correction
:)
I'll correct the tab now.

0 reply
nincompoop 101 wrote on March 24 2013, 04:38 pm

I'm pretty sure there's an actual guitar part in the actual song--in the chorus at some parts there's some chords.

guest
You may want to rate the tab now too:
select rating
Wanna post a correction for this tab? Suggest correction