Oops, an error
Loading. Please wait.

Call Me Maybe Tab

version 8
version 8

Interactive

18,728 views 9 this week
no commentswrite comment
1 2 3 4 5
please rate
add to favorites
launch autoscroll
font size
0
reset
how to read this tab
guitar tuner
Autoscroll
slow
fast
+/-
esc
set tempo
stop
Help us to improve Ultimate-Guitar.com Take our survey!
×
Author
Difficulty
novice
-------------------------------------------------------------------------------
                             Call Me Maybe - Carly Rae Jepsen
-------------------------------------------------------------------------------
Tabbed by: Adam Gaffney (YouTube:Weyyheyy1)
E-mail: gaffers1996@gmail.com

Tuning: Standard

Guitar 1: Vocals (EADGBE)
Guitar 2: Lead   (EADGBE)
Guitar 3: Rhythm (EADGBE)

Verse
Guitar 1
e|--------------------------------------------------------------------------|
B|--------------------------------------------------------------------------|
G|-----------------------------7--------------------------------------------|
D|-9999979-9999979-9999977-7755--9-x2---------------------------------------|
A|--------------------------------------------------------------------------|
E|--------------------------------------------------------------------------|

Guitar 2
e|--------------------------------------------------------------------------|
B|--------------------------------------------------------------------------|
G|--------------------------------------------------------------------------|
D|--------------------------------------------------------------------------|
A|--------5---------------5-------------x2----------------------------------|
E|-3333333--5555557-333333--555555------------------------------------------|

Pre-Chorus
Guitar 1
e|-------------------------------------7------------------------------------|
B|-----------------------------88888810-------------------------------------|
G|-7-7-----7-7-7-----7-7-7--------------------------------------------------|
D|-----975-------975-------975----------------------------------------------|
A|--------------------------------------------------------------------------|
E|--------------------------------------------------------------------------|

Guitar 2
e|--------------------------------------------------------------------------|
B|--------------------------------------------------------------------------|
G|--------------------------------------------------------------------------|
D|------------------------------------5-------------------------------------|
A|-5-5-----5-5-5-----5-5-5-----5555557--------------------------------------|
E|-----753-------753-------753----------------------------------------------|

Chorus
Guitar 1
e|--------------7-----787----7----------------------------------------------|
B|--8----8-------8--8-----8-8-1010-8----------------------------------------|
G|------7-7---7----------------------------x3-------------------------------|
D|----9------9--------------------------------------------------------------|
A|--------------------------------------------------------------------------|
E|--------------------------------------------------------------------------|

e|-----------------7^----787-----7--------------------------------------------|
B|-8----8-8----------8-8-----8-8--1010-8--------------------------------------|
G|-----7----7----7------------------------------------------------------------|
D|---9----------9-------------------------------------------------------------|
A|----------------------------------------------------------------------------|
E|----------------------------------------------------------------------------|

Guitar 2
e|--------------------------------------------------------------------------|
B|-------8------------------8-----------------------------------------------|
G|-5-----7-77----9--55------7--77----9--------------------------------------|
D|-5-----5-77----9--55------5--77----9----x4--------------------------------|
A|-3-----5-55----7--33------5--55----7--------------------------------------|
E|--------------------------------------------------------------------------|

Guitar 3
e|--------------------------------------------------------------------------|
B|--------------------------------------------------------------------------|
G|---------7----------------------------------------------------------------|
D|--5------7-77---9-55-----77---9-------------------------------------------|
A|--5------5-77---9-55-----77---9-------------------------------------------|
E|--3--------55---7-33-----55---7-------------------------------------------|

Bridge
Guitar  1
e|---7----------------------------------------------------------------------|
B|-8--101088-----10-8-----10-8------8h10-8h10-------------------------------|
G|----------97777-----777------777------------7-------x2--------------------|
D|--------------------------------------------------------------------------|
A|--------------------------------------------------------------------------|
E|--------------------------------------------------------------------------|

Guitar 2
e|-15--14-----------------------------15--14--------------------------------|
B|------------15------------------------------15----------------------------|
G|-----------------14---14h16--12-----------------14---14h16-14h16----------|
D|---------------------------------------------------------------------x2---|
A|--------------------------------------------------------------------------|
E|--------------------------------------------------------------------------|

e|--------------------------------------------------------------------------|
B|-------8------------------8-----------------------------------------------|
G|-5-----7-77----9--55------7--77----9--------------------------------------|
D|-5-----5-77----9--55------5--77----9----x4--------------------------------|
A|-3-----5-55----7--33------5--55----7--------------------------------------|
E|--------------------------------------------------------------------------|

Verse
Pre-Chorus
Chorus
Verse
Pre-Chorus
Chorus
Bridge
Chorus (Everything played only one time)
Chorus (Proper)
Bridge

Thank you for reading this tab, I hope you find it useful if you wish to play the song,
and for any corrections you can contact me at the email address written above, I will
edit this post soon when I have a video of all 3 guitars up if you want to hear how it 
sounds, enjoy!
*****************************************************************************
| /   slide up
| \   slide down
| h   hammer-on
| p   pull-off
| ~   vibrato
| +   harmonic
| x   Mute note
| b   Bend
| pb  Pre-bend
| br  Bend release
| pbr Pre-bend release
| brb Bend release bend

*****************************************************************************
Suggest correction
Give kudos to tab author, rate the tab!
1 2 3 4 5
comments
print report bad tab
guest
You may want to rate the tab now too:
select rating
Wanna post a correction for this tab? Suggest correction