Oops, an error
Loading. Please wait.

Worldly Matters Chords

version 3
version 3

Whole song

7 views 1 this week
no commentswrite comment
1 2 3 4 5
3 more votes to show rating
add to favorites
launch autoscroll
font size
0
reset
transpose
0
reset
simplify chords
display chords
guitar tuner
Autoscroll
slow
fast
+/-
esc
set tempo
stop
Help us to improve Ultimate-Guitar.com Take our survey!
×
Author
Difficulty
intermediate
About this tab version
To play along with the original, tune half step down. Was this info helpful? Yes No
[Intro]
           Dsus2     A7sus4     G/B        D
e|-----------0----------3----------3----------2---|
B|-----------3----------3----------3----------3---|
G|--------2-------------2-------0----------2------|
D|---2h4-------------2------------------0---------|
A|----------------0----------2--------------------|
E|------------------------------------------------|

           Dsus2     A7sus4     G/B        Dsus2
e|-----------0----------3----------3----------0---|
B|-----------3----------3----------3----------3---|
G|--------2-------------2-------0----------2------|
D|---2h4-------------2------------------0---------|
A|----------------0----------2--------------------|
E|------------------------------------------------|

[Verse 1]
Dsus2           A7sus4  G/B               D
   Hot pink skies,       twilight of the day
    Dsus2               A7sus4       G/B           Dsus2
I think that I've been goin bout this the wrong way
Dsus2           A7sus4                G/B                D
 Kids on my street gather at me, I'm barefoot hide-and-seek
Dsus2                     A7sus4        G/B                      Dsus2
 My best friend she lives up the road, haven't talked to her in weeks

[Chorus]
D                           D/C
Oh time don't blind me, I am so sorry
      G/B                E7
I've been swept up in my own concerns,
        D                      D/C              G/B
I know worldy matters they just don't matter at all
    E7
No not at all

[Verse 2]
Dsus2         A7sus4      G/B                 D
   I keep on walkin I stop ditchin' all my plans
Dsus2                A7sus4         G/B               Dsus2
 I wanna climb that cedar tree and leave me in good hands
Dsus2           A7sus4       G/B              D
 What happened to me on the way to something higher
Dsus2           A7sus4          G/B           Dsus2
  What will be left when I have all that I desire?

[Chorus]
D                         D/C
Oh time don't blind me, I am so sorry
     G/B                   E7
I've been swept up in my own concerns,
       D                  D/C                   G/B
I know worldy matters they just don't matter at all
    E7
No not at all

No not at all

[Outro]
D  A7sus4  G  D
D  A7sus4  G  D
Suggest correction
Give kudos to tab author, rate the tab!
1 2 3 4 5
comments
print report bad tab
guest
You may want to rate the tab now too:
select rating
Wanna post a correction for this tab? Suggest correction