Oops, an error
Loading. Please wait.

The Right Thing To Do bass

112 views 1 this week
5 commentsread comments
1 2 3 4 5
1 last vote to show rating
add to favorites
×
Save as Personal and add changes to this tab that will be seen only by you. Learn more ›
×
You can save this tab as Personal to edit and correct it or add notes. All changes will be seen only by you. Learn more »
launch autoscroll
font size
0
reset
guitar tuner
edit
Autoscroll
slow
fast
+/-
esc
set tempo
stop
Author
Difficulty
--------------------------------------------------------------------------
                            Artist - Carly Simon
                          ***********************
                        Song - The Right Thing To Do    
                       ******************************
                          Album - No Secrets (1972)
                         ***************************
                            Tabbed By - Ayreon77
                           **********************
--------------------------------------------------------------------------
Tuning = Standard             




00:06
VERSE 1
********
There's nothing you ...............
G|--------|--------|----------|-----------|--------|-----------------|
D|--------|---3--3-|-3------5-|-7-------7-|--------|------9-9----9-7-|
A|-3--3-3-|-3------|---5--5---|----7-10---|-9--9---|---7-------9-----|
E|--------|--------|----------|-----------|------7-|-7---------------|

00:22
G|-----|---------7---|-----|----------|
D|-----|-------------|-----|---3-5~~~-|
A|-----|---5-5-5---5-|-5-5-|-5--------|
E|-5-5-|-5-----------|-----|----------|


-----------------------
00:31
VERSE 2
********
I know you've had...............
G|-------|---------|--s---------|----9------|--------|---------|
D|-------|---3--33-|-5\7------5-|-7---------|------9-|-9--s----|
A|-3---3-|-3-------|-----5--5---|------7-10-|-9--9---|---7\----|
E|-------|---------|------------|-----------|--------|-------0-|

00:46
G|----------|-------7---|-----|----------|
D|----------|-----------|-----|---3-5~~~-|
A|----------|---5-5---5-|-5-5-|-5--------|
E|-0-5--5-5-|-5---------|-----|----------|


-----------------------
00:57
BRIDGE
*******  
And it used to be..............               01:07
G|-------|-------|-----------|-------|-------|-------|-------|-----------|--------|-------|-------|-------|
D|-------|-------|-----------|-------|-------|-------|-------|--s--5-7-7-|---7-7--|---7-5-|-7-----|-------|
A|-5---5-|-3---3-|-----------|-------|---3-3-|-5---5-|-3---3-|-5\7-------|-7------|-7-----|---7---|---8~~-|
E|-------|-------|-5-5---5-5-|-5-3-3-|-3-----|-------|-------|-----------|--------|-------|-----7-|-7-----|

01:20
G|---------|-----------|
D|-8-7-5---|-----7-5---|
A|---------|-7-5-----7-|
E|-------3-|-----------|


-----------------------
01:25
VERSE 3
********
Hold me in your hands............                                 s
G|--------|---------|--s-s-----------|------9-12-14-|-----s------9\-|---------|
D|--------|---3---3-|-5\7/5-3------5-|---7----------|----9\11-9-----|---------|
A|-3--3-3-|-3---3---|---------5--5---|-5------------|-9-------------|-7-7-7-7-|
E|--------|---------|----------------|--------------|---------------|---------|

01:41
G|--------|---------7---|-----|----------|
D|--------|-------------|-----|---3-5~~~-|
A|--------|---5-5-5---5-|-5-5-|-5--------|
E|-5--5-5-|-5-----------|-----|----------|


-----------------------
01:51
VERSE 4
********
Is the right thing to do.....................
G|------|-----------|---------------------------|--------------|-------|---s-----------------|
D|------|---2-5---3-|-3--3-5-3---------s--------|--------------|--s----|-10\12-10------------|
A|----3-|-3-----3---|----------3---3--3\--------|--s--0-3--3-3-|-5\7-8-|----------12-10------|
E|-3----|-----------|--------------------0--0-0-|-1\3----------|-------|----------------8--8-|


G|------|--------s-------------------|
D|------|------10\12-10--------------|
A|-8--8-|---------------12-10-8--8-8-|
E|------|-8--8-----------------------|

02:18
G|------------|------------|
D|------------|------------|
A|------------|-8-8--8-8-8-|Play this for
E|-8-8--8-8-8-|------------|  a bit until the end, Ad Lib


02:49
G|-----------|------|
D|---10---10-|---10-|
A|-----------|------|
E|-8---8-----|-8----|


ENJOY..........

            
            
Suggest correction
Creating personal tab
Creating personal tab
You can edit any tab online and save it as your Personal.

You can edit, replace or remove any tab part or add personal notes – all changes will be seen only by you.

Personal tabs can be accessed anytime from any device, even offline.
Learn more »
Give kudos to tab author, rate the tab!
1 2 3 4 5
comments
print report bad tab
5 comments total. Showing first comments.
0 reply
JackDelonge 237 Jul 12, 2016 03:55 AM

Thank you, great tab! Love this song!

0 reply
ayreon77 21,833 Jul 12, 2016 04:12 AM

yea no prob glad you liked it, and thx for the 5 star rate.

0 reply
JackDelonge 237 Jul 12, 2016 05:35 AM

I appreciate it very much as I only requested this tab a couple of days ago!

guest
You may want to rate the tab now too:
select rating
Wanna post a correction for this tab? Suggest correction