Oops, an error
Loading. Please wait.

Tired Of Being Blonde bass

10 views 1 this week
no commentswrite comment
1 2 3 4 5
2 more votes to show rating
add to favorites
×
Save as Personal and add changes to this tab that will be seen only by you. Learn more ›
×
You can save this tab as Personal to edit and correct it or add notes. All changes will be seen only by you. Learn more »
launch autoscroll
font size
0
reset
guitar tuner
edit
Autoscroll
slow
fast
+/-
esc
set tempo
stop
Tired Of Being Blonde
Track by Carly Simon taken from her 1985 album Spoiled Girl.
Tab by bass50611. Welcome to my tab which is what I would play on stage
Not exact as original. My thanks to Jack DeLonge for the chords sequence.

Intro: (NO BASS)

Verse 1:
 She left the credit cards under her goodbye note...All of these are yours 
G|------------------------------------------------------------------------|
D|-------------------------NO BASS----------------------------------------|
A|------------------------------------------------------------------------|
E|------------------------------------------------------------------------|

  Goodbye and that was all she wrote...Keys to the Porsche she dropped on 
G|-----------------------------------------------------------------------|
D|----------------------------NO BASS------------------------------------|
A|-----------------------------------------------------------------------|
E|-----------------------------------------------------------------------|

 The floor in the den...left in the ’70 Dodge that he drove her in...
G|------------------------------------------------------------------|
D|-------------------------NO BASS----------------------------------|
A|------------------------------------------------------------------|
E|------------------------------------------------------------------|

 She wasn’t angry, she wasn’t sad                                  (Break)
G|------------------------------------------------------------------------|
D|------------------------------------------------------------------------|
A|--------7/9-------------------4-5--5--5--5------------------------------|
E|--------------------------9----------------7--7--7--7--0--0--0--0---0-0-|

Chorus 1:
G|--------------------------------------------------------------|
D|--------------------------7--7--7--7--------------------------|
A|-9--9--9--9---7--7--7--7--------------5--5--5--5-7-9--9--9--9-|
E|--------------------------------------------------------------|

G|-------------------------------------------------------------|
D|-------------7--7--7--7--7--7--7-----------------------------|
A|-7--7--7--7----------------------7-8-9--9--9--9---7--7--7--7-|
E|-------------------------------------------------------------|

G|------------------------------------------------------------------------|
D|-7--7--7--7--------------------------------------7--7--7--7---7-7---7-7-|
A|------------5--5--5--5-7-9--9--9--9---7--7--7--7------------------------|
E|------------------------------------------------------------------------|

Verse 2:
G|-----------------------------------------------------------------------|
D|-----------------------------------------------------------------------|
A|-9--9--9--9--9--9--9--9---7--7--7--7--7--7--7--7------------7--7--7--7-|
E|-------------------------------------------------7--7--7--7------------|

G|------------------------------------------------------------------------|
D|-7--7--7--7--7--7--7--7-------------------------------------------------|
A|------------------------9--9--9--9--9--9--9--9---7--7--7--7--7--7--7--7-|
E|------------------------------------------------------------------------|

G|---------------------------------------------------------------|
D|---------------------------------------------------------------|
A|------------7--7--7--7------------------------9--9-9--9-9--9-9-|
E|-7--7--7--7------------5--5--5--5--5--5--5--5------------------|

                                                                (Break)
G|-------------------------------------------------------------------|
D|-------------------------------------------------------------------|
A|-------------------------------------------------------------------|
E|-9--9-9--9-9--9-9---10--10--10--10---7--7--7--7---0--0--0--0---0-0-|

Chorus 2:
G|--------------------------------------------------------------|
D|--------------------------7--7--7--7--------------------------|
A|-9--9--9--9---7--7--7--7--------------5--5--5--5-7-9--9--9--9-|
E|--------------------------------------------------------------|

G|-------------------------------------------------------------|
D|-------------7--7--7--7--7--7--7-----------------------------|
A|-7--7--7--7----------------------7-8-9--9--9--9---7--7--7--7-|
E|-------------------------------------------------------------|

                          (Break)           (Break)
G|-------------------------------------------------|
D|-7--7--7--7---------------------------------7----|
A|------------5--5--5--5-7-9---------7-------------|
E|-------------------------------------------------|

Interlude:
G|--------------------------------------------------------------|
D|--------------------------7--7--7--7--------------------------|
A|-9--9--9--9---7--7--7--7--------------5--5--5--5-7-9--9--9--9-|
E|--------------------------------------------------------------|

G|-----------------------------------|
D|-----------------------------------|
A|-7--7--7--7------------------------|
E|------------5--5--5--5--5--5--5--5-|

Bridge:
She wasn’t angry, she wasn’t sad 
G|----------------------------------------------------------=---|
D|--------------------------------------------------------------|
A|--------9-----------------------------4-5--5--5--5------------|
E|--------------------------9----9-------------------7--7--7--7-|

                 (Break)
G|------------------|
D|------------------|
A|------------------|
E|-0--0--0--0---0-0-|

Chorus 3:
G|--------------------------------------------------------------|
D|--------------------------7--7--7--7--------------------------|
A|-9--9--9--9---7--7--7--7--------------5--5--5--5-7-9--9--9--9-|
E|--------------------------------------------------------------|

G|-------------------------------------------------------------|
D|-------------7--7--7--7--7--7--7-----------------------------|
A|-7--7--7--7----------------------7-8-9--9--9--9---7--7--7--7-|
E|-------------------------------------------------------------|

G|------------------------------------------------------------------------|
D|-7--7--7--7-------------------------------------7--7--7--7--7--7--7-----|
A|------------5--5--5--5-7-9--9--9--9--7--7--7--7---------------------7-8-|
E|------------------------------------------------------------------------|

Outro:   (Repeat Intro To Fade/End If Required With Own Runs And Fills)
G|--------------------------------------------------------------|
D|--------------------------7--7--7--7--------------------------|
A|-9--9--9--9---7--7--7--7--------------5--5--5--5-7-9--9--9--9-|
E|--------------------------------------------------------------|

G|-------------------------------------------------------------|
D|-------------7--7--7--7--7--7--7-----------------------------|
A|-7--7--7--7----------------------7-8-9--9--9--9---7--7--7--7-|
E|-------------------------------------------------------------|

G|------------------------------------------------------------------------|
D|-7--7--7--7-------------------------------------7--7--7--7--7--7--7-----|
A|------------5--5--5--5-7-9--9--9--9--7--7--7--7---------------------7-8-|
E|------------------------------------------------------------------------|

Suggest correction
Creating personal tab
Creating personal tab
You can edit any tab online and save it as your Personal.

You can edit, replace or remove any tab part or add personal notes – all changes will be seen only by you.

Personal tabs can be accessed anytime from any device, even offline.
Learn more »
Give kudos to tab author, rate the tab!
1 2 3 4 5
comments
print report bad tab
guest
You may want to rate the tab now too:
select rating
Wanna post a correction for this tab? Suggest correction