Oops, an error
Loading. Please wait.

Youre So Vain solo tab

version 2
version 2

Solo

  • While moxxidude's tab of this solo is close, it fa... Show more

Interactive

22 views 3 this week
no commentswrite comment
1 2 3 4 5
2 more votes to show rating
add to favorites
×
Save as Personal and add changes to this tab that will be seen only by you. Learn more ›
×
You can save this tab as Personal to edit and correct it or add notes. All changes will be seen only by you. Learn more »
launch autoscroll
font size
0
reset
how to read this tab
guitar tuner
edit
Autoscroll
slow
fast
+/-
esc
set tempo
stop
About this tab version
While moxxidude's tab of this solo is close, it fails to recognise that the final 4 bars of the solo are played with a guitar slide. On top of this, in the 8th bar he tabs a note incorrectly as an F when the note played is an E. It also fails twice to show that the blue note of the scale, Eb, is used, whereas this tab shows every note played clearly. Was this info helpful? Yes No
[Solo]
e|----------|-----------------------|----------------------|------------------|
B|-15b17----|----15b17-15b17--15b17-|-br16~---15b17br15-13-|------------------|
G|----------|-----------------------|----------------------|-14~--------12-14-|
D|----------|-----------------------|----------------------|------12h14-------|
A|----------|-----------------------|----------------------|------------------|
E|----------|-----------------------|----------------------|------------------|

e|-15-------|--------------------------|-----------------------|--------------|
B|-18b20~---|-17----16----15----13-----|-10--------------------|--------------|
G|----------|-19b21-18b20-17b19-15b17~-|-12b14~----12b14br12-9-|-12b14~-------|
D|----------|--------------------------|-----------------------|--------------|
A|----------|--------------------------|-----------------------|--------------|
E|----------|--------------------------|-----------------------|--------------|

(with slide)
e|-------17-15-----------|-------/17-|------------------|-------|-------------|
B|-15/17--------17\15-13-|-/17\------|-16\15\13--/15-13-|-8~----|--/20~-------|
G|-----------------------|-----------|------------------|-------|-------------|
D|-----------------------|-----------|------------------|-------|-------------|
A|-----------------------|-----------|------------------|-------|-------------|
E|-----------------------|-----------|------------------|-------|-------------|


************************************

| b   Bend
| br  Bend release
| ~   Vibrato
| h   Hammer-on
| /   Slide up
| \   Slide down

************************************
Suggest correction
Creating personal tab
Creating personal tab
You can edit any tab online and save it as your Personal.

You can edit, replace or remove any tab part or add personal notes – all changes will be seen only by you.

Personal tabs can be accessed anytime from any device, even offline.
Learn more »
Give kudos to tab author, rate the tab!
1 2 3 4 5
comments
print report bad tab
guest
You may want to rate the tab now too:
select rating
Wanna post a correction for this tab? Suggest correction