Oops, an error
Loading. Please wait.

I Smell Like Death Son Of A Bastard Tab

616 views 9 this week
no commentswrite comment
1 2 3 4 5
accurate
x 1
add to favorites
launch autoscroll
font size
0
reset
how to read this tab
guitar tuner
Tab Pro tools
  • play this tab
  • loop segment
  • change instrument
  • show fretboard
  • metronome
Autoscroll
slow
fast
+/-
esc
set tempo
stop
Contributor
-------------------------------------------------------------------------------
             I SMELL LIKE DEATH - Carnal Forge
-------------------------------------------------------------------------------
Tabbed by:Shane Welsh
Email:sk8pantera@yahoo.com

Tuning: Down 1/2 step
verse 1 play 4x

e|---------------------------------------------------------------------------|
B|---------------------------------------------------------------------------|
G|----9---------10--9------9-------------------------------------------------|
D|----9---------10--9------9-------------------------------------------------|
A|----7---------8---7------7-------------------------------------------------|
E|-0-----0--0----------0-0----0-0-3--2--1--0---------------------------------|

e|---------------------------------------------------------------------------|
B|---------------------------------------------------------------------------|
G|----9---------10--9------9-------12--10-9----------------------------------|
D|----9---------10--9------9-------12--10-9----------------------------------|
A|----7---------8---7------7-------10--8--7----------------------------------|
E|-0-----0--0----------0-0----0-0--------------------------------------------|

Verse 2 play 4x

e|---------------------------------------------------------------------------|
B|---------------------------------------------------------------------------|
G|---------------------------------------------------------------------------|
D|---------------------------------------------------------------------------|
A|----7---8---10--6---7-7---8---10--11--10---7---8---10--6--7-7---8--6--7-7--|
E|-0----0---0---0---0-----0---0----0---0----0---0---0---0--0-----0--0--0-----|




| /  slide up
| \  slide down
| h  hammer-on
| p  pull-off
| ~  vibrato
| +  harmonic
| x  Mute note
===============================================================================
comments
We did not receive enough feedback on this tab! Please rate:
print report bad tab
1 2 3 4 5
I want to post or [tab]
guest
You may want to rate the tab now too:
select rating
Please do not post tabs as comments. Select "correction" instead!