Oops, an error
Loading. Please wait.

The Other Woman Tab

8,002 views 5 this week
no commentswrite comment
1 2 3 4 5
please rate
add to favorites
launch autoscroll
font size
0
reset
how to read this tab
guitar tuner
Tab Pro tools
  • play this tab
  • loop segment
  • change instrument
  • show fretboard
  • metronome
×
Best way to learn
"The Other Woman"
Autoscroll
slow
fast
+/-
esc
set tempo
stop
Contributor
Difficulty
intermediate
Caro Emerald - The Other Woman
From her debut album: Deleted Scenes From The Cutting Room Floor

Tuning: Standard


This is my first tab hope j'all enjoy it!
I did a bad job on the bridge though couldn't figure it out so e-mail me if you
know it so I could fix it!
duiventeler@gmail.com


Before playing each chord, mute the strings with your fret hand a bit,
on the position of the coming chord. Listen to the song and you'll figure it out.
(the x's represent hand muting)

Verse:

e---------x-6--6-------x-6--6-------x-4--4-------x-4--4-------x-6--6--|
B--------x--7--7------x--7--7------x--4--4------x--4--4------x--7--7--|
G-------x---8--8-----x---8--8-----x---4--4-----x---4--4-----x---8--8--|
D------x----8--8----x----8--8----x----6--6----x----6--6----x----8--8--|
A-----x-----6--6---x-----6--6---x-----6--6---x-----6--6---x-----6--6--|
E----x------6--6--x------6--6--x------4--4--x------4--4--x------6--6--|


e-------x-6--6-------x-6--6-------x-6--6-------x-7--7-------x-7--7--|
B------x--7--7------x--6--6------x--6--6------x--7--7------x--7--7--|
G-----x---8--8-----x---7--7-----x---7--7-----x---8--8-----x---8--8--|
D----x----8--8----x----8--8----x----8--8----x----9--9----x----9--9--|
A---x-----6--6---x-----8--8---x-----8--8---x-----9--9---x-----9--9--|
E--x------6--6--x------6--6--x------6--8--x------7--7--x------7--7--|


e------x-6--6-------x-6--6-------x-7--7-------x-7--7-------x-6--6--|
B-----x--7--7------x--7--7------x--7--7------x--7--7------x--6--6--|
G----x---8--8-----x---8--8-----x---8--8-----x---8--8-----x---7--7--|
D---x----8--8----x----8--8----x----9--9----x----9--9----x----8--8--|
A--x-----6--6---x-----6--6---x-----9--9---x-----9--9---x-----8--8--|
E-x------6--6--x------6--6--x------7--7--x------7--7--x------6--6--|


e-------x-6--6--|
B------x--6--6--|
G-----x---7--7--|
D----x----8--8--|
A---x-----8--8--|
E--x------6--6--|


Chorus:

e---------x-6--6-------x-6--6-------x-4--4-------x-4--4-------x-6--6--|
B--------x--7--7------x--7--7------x--4--4------x--4--4------x--7--7--|
G-------x---8--8-----x---8--8-----x---4--4-----x---4--4-----x---8--8--|
D------x----8--8----x----8--8----x----6--6----x----6--6----x----8--8--|
A-----x-----6--6---x-----6--6---x-----6--6---x-----6--6---x-----6--6--|
E----x------6--6--x------6--6--x------4--4--x------4--4--x------6--6--|


e-------x-6--6-------x-6--6-------x-6--6--|
B------x--7--7------x--6--6------x--6--6--|
G-----x---8--8-----x---7--7-----x---7--7--|
D----x----8--8----x----8--8----x----8--8--|
A---x-----6--6---x-----8--8---x-----8--8--|
E--x------6--6--x------6--6--x------6--6--|


Half way down the chorus follows solo 1:

e-------------------------------------------------------------|
B-------------------------------------------------------------|
G-------------------------------------------------------------|
D-------------------------------------------------------------|
A------------6/9-8-----------7/9-8-9---------7/9-8------------|
E--6---6-5-6-------6---7-6-7-----------7-6-7-------6-5-6--6/1-|


Play Verse


Play Chorus

Play Solo 1 again during the chorus except end on:


e-------------|
B-------------|
G-------------|
D-------------|
A-------------|
E--6-5-6--2-1-|


Bridge

e-------6-------4-------2-------2------1-------6--|
B------7-------4-------4-------4------3-------7---|
G-----8-------4-------4-------2------1-------8----|
D----8-------6-------4-------4------3-------8-----|
A---6-------6-------2-------2------1-------6------|
E--6-------4-------2-------2------1-------6-------|


Solo 3

e--------------------------------------------------------------------|
B--------------------------------------------------------------------|
G--------------------------------------------------------------------|
D--------------------7-8-9-8-----------------------------------------|
A-----------------------------8/5---6---8-9--8-9--9/6----------------|
E--6/11--11/4--6/11-----------------------------------7--7-5-5-6-7-6-|

Chorus

End


Caro Emerald is a signed artist. Link to her website: http://www.caroemerald.com/

Tabbed by: thijsvollenhove
comments
We did not receive enough feedback on this tab! Please rate:
print report bad tab
1 2 3 4 5
I want to post or [tab]
guest
You may want to rate the tab now too:
select rating
Please do not post tabs as comments. Select "correction" instead!