Oops, an error
Loading. Please wait.

Baby Sittin Bass Tab

13 views 1 this week
no commentswrite comment
1 2 3 4 5
3 more votes to show rating
add to favorites
launch autoscroll
font size
0
reset
guitar tuner
Autoscroll
slow
fast
+/-
esc
set tempo
stop
Help us to improve Ultimate-Guitar.com Take our survey!
×
Author
Difficulty
novice
About this tab version
This song was one of King's earliest singles. Was this info helpful? Yes No
  [Intro]
G|----------------|----------------|
D|----------------|----------------|
A|3-------3-------|3---1---0-------|
E|----------------|------------3---|

G|----------------|----------------|----------------|----------------|
D|----------------|----------------|----------------|----------------|
A|----------------|1-------1-------|----------------|1-------1-------|
E|1-------1-------|----------------|1-------1-------|----------------|

G|----------------|----------------|----------------|----------------|
D|----------------|----------------|----------------|----------------|
A|----------------|1---------------|1---------------|0---------------|
E|1-------1-------|--------1-------|----------------|----3---3---1---|

G|----------------|----------------|----------------|----------------|
D|--------0-------|----------------|0-------0-------|----------------|
A|----------------|3-------3-------|----------------|----------------|
E|1---------------|----------------|----------------|3-------1-------|

G|----------------|----------------|----------------|----------------|
D|--------0-------|----------------|----------------|----------------|
A|----------------|3-------3-------|----------------|3---1---0-------|
E|1---------------|----------------|1---------------|------------3---|

G|----------------|----------------|----------------|----------------|
D|--------0-------|----------------|----------------|----------------|
A|----------------|3-------3-------|----------------|3-------3-------|
E|1---------------|----------------|1-------1-------|----------------|

G|----------------|----------------|----------------|----------------|
D|0-------0-------|----------------|----------------|----------------|
A|----------------|3-------3-------|----------------|------------0---|
E|----------------|----------------|1---------------|1---1---3-------|

G|----------------|----------------|----------------|----------------|
D|----------------|0-------0-------|----------------|----------------|
A|1-------1-------|----------------|----------------|----------------|
E|----------------|----------------|1-------1-------|1-------1-------|

G|----------------|----------------|----------------|----------------|
D|----------------|--------0-------|----------------|----------------|
A|----------------|----------------|3---------------|3---1---0-------|
E|3-------3-------|3---------------|----------------|------------3---|

G|----------------|----------------|----------------|----------------|
D|--------0-------|----------------|--------0-------|----------------|
A|----------------|3-------3-------|----------------|3-------3-------|
E|1---------------|----------------|1---------------|----------------|

G|----------------|----------------|----------------|----------------|
D|--------0-------|----------------|----------------|----------------|
A|----------------|3-------3-------|----------------|3---1---0-------|
E|1---------------|----------------|1---------------|------------3---|

G|----------------|----------------|----------------|----------------|
D|----------------|----------------|----------------|----------------|
A|----------------|1-------1-------|----------------|1-------1-------|
E|1-------1-------|----------------|1-------1-------|----------------|

G|----------------|----------------|----------------|----------------|
D|----------------|----------------|----------------|----------------|
A|----------------|1-------1-------|----------------|3---3---1---3---|
E|1-------1-------|----------------|1---------------|----------------|

  [Bridge]
G|----------------|----------------|----------------|----------------|
D|0-------0-------|----------------|0-------0-------|----------------|
A|----------------|3-------3-------|----------------|3-------3-------|
E|----------------|----------------|----------------|----------------|

G|----------------|----------------|----------------|----------------|
D|0-------0-------|----------------|--------0-------|----------------|
A|----------------|3-------3-------|----------------|----------------|
E|----------------|----------------|1---------------|1---1---1---1---|

G|----------------|----------------|----------------|----------------|
D|0-------0-------|0---------------|----------------|----------------|
A|----------------|----------------|----------------|----------------|
E|----------------|--------1-------|1-------1-------|1---1---1---1---|

G|----------------|----------------|----------------|----------------|
D|----------------|--------0-------|----------------|----------------|
A|----------------|----------------|3---------------|3---1---0-------|
E|3-------3-------|3---------------|----------------|------------3---|

G|----------------|----------------|----------------|----------------|
D|--------0-------|----------------|--------0-------|----------------|
A|----------------|3-------3-------|----------------|3-------3-------|
E|1---------------|----------------|1---------------|----------------|

G|----------------|----------------|----------------|----------------|
D|0-------0-------|----------------|----------------|----------------|
A|----------------|3-------3-------|----------------|3---1---0-------|
E|----------------|----------------|1---------------|------------3---|

  [Outro]
G|----------------|----------------|----------------|----------------|
D|----------------|----------------|----------------|----------------|
A|----------------|1-------1-------|----------------|1-------1-------|
E|1-------1-------|----------------|1-------1-------|----------------|

G|----------------|----------------|----------------|----------------|
D|----------------|----------------|----------------|----------------|
A|----------------|1---------------|----------------|----------------|
E|1-------1-------|--------1-------|1---------------|1---1---1---1---|

G|----------------|----------------|----------------|----------------|
D|----------------|----------------|----------------|----------------|
A|----------------|1-------1-------|----------------|----------------|
E|1-------1-------|----------------|----------------|----------------|
Suggest correction
Give kudos to tab author, rate the tab!
1 2 3 4 5
comments
print report bad tab
guest
You may want to rate the tab now too:
select rating
Wanna post a correction for this tab? Suggest correction