Oops, an error
Loading. Please wait.

Been To Canaan Bass

28 views 1 this week
no commentswrite comment
1 2 3 4 5
3 more votes to show rating
add to favorites
launch autoscroll
font size
0
reset
guitar tuner
Autoscroll
slow
fast
+/-
esc
set tempo
stop
Author
Difficulty
intermediate
About this tab version
This song peaked at #24 on the Billboard Hot 100 in 1973. Was this info helpful? Yes No
  [Intro]
G|----------------|----------------|----------------|----------------|
D|3-----------3---|3-----------3---|1-----------1---|1-----------1---|
A|----------------|----------------|----------------|----------------|
E|----------------|----------------|----------------|----------------|

G|----------------|----------------|----------------|----------------|
D|3-----------3---|3-----------3---|1-----------1---|1-----------1---|
A|----------------|----------------|----------------|----------------|
E|----------------|----------------|----------------|----------------|

  [Verse]
G|----------------|----------------|----------------|----------------|
D|----------------|----------------|1-----------1---|1-----------1---|
A|1-----------1---|1-----------1---|----------------|----------------|
E|----------------|----------------|----------------|----------------|

G|----------------|----------------|----------------|----------------|
D|----------------|----------------|1-----------1---|1-----------1---|
A|1-----------1---|1-----------1---|----------------|----------------|
E|----------------|----------------|----------------|----------------|

G|----------------|----------------|----------------|----------------|
D|----------------|----------------|----------------|----------------|
A|----------------|----------------|----------------|----------------|
E|4-----------4---|4-----------4---|3-----------3---|3-----------3---|

G|----------------|----------------|----------------|----------------|
D|----------------|----------------|----------------|----------------|
A|3-----------3---|--------------1-|------------1---|1-----------1---|
E|--------------3-|1---1---1-------|----------------|----------------|

  [Chorus]
  Been  too   long             I    can't
G|----------------|----------------|----------------|----------------|
D|----------------|----------------|1-----------1---|1-----------1---|
A|----------------|----------------|----------------|----------------|
E|4-----------4---|4-----------4---|----------------|----------------|

G|----------------|----------------|----------------|----------------|
D|----------------|----------------|1-----------1---|1-----------1---|
A|1---------------|1---------1---1-|----------------|----------------|
E|----------------|----------------|----------------|----------------|

  Been  so    long           I'm    living                         I've
G|----------------|----------------|----------------|----------------|
D|----------------|----------------|1-----------1---|1-----------1---|
A|----------------|----------------|----------------|----------------|
E|4-----------4---|4-----------4---|----------------|----------------|

  been  Ca    and  I won't   until  I     go    back       a
E|----------------|----------------|----------------|------------|
D|----------------|----------------|----------------|------------|
A|1-----------1---|1-----------1---|1-----------1---|------------|
E|----------------|----------------|----------------|------------|

  gain
G|----------------|----------------|
D|----------------|----------------|
A|----------------|----------------|
E|4-----4-4-------|4-----------4---|

  [Verse]
G|----------------|----------------|----------------|----------------|
D|----------------|----------------|1-----------1---|1-----------1---|
A|1-----------1---|1-----------1---|----------------|----------------|
E|----------------|----------------|----------------|----------------|

G|----------------|----------------|----------------|----------------|
D|----------------|----------------|1-----------1---|1-----------1---|
A|1-----------1---|1-----------1---|----------------|----------------|
E|----------------|----------------|----------------|----------------|

G|----------------|----------------|----------------|----------------|
D|----------------|----------------|----------------|----------------|
A|----------------|----------------|----------------|----------------|
E|4-----------4---|4-----------4---|3-----------3---|3-----------3---|

G|----------------|----------------|----------------|----------------|
D|----------------|----------------|----------------|----------------|
A|3-----------3---|--------------1-|------------1---|1-----------1---|
E|--------------3-|1---1---1-------|----------------|----------------|

  [Chorus]
  Been  too   long             I    can't
G|----------------|----------------|----------------|----------------|
D|----------------|----------------|1-----------1---|1-----------1---|
A|----------------|----------------|----------------|----------------|
E|4-----------4---|4-----------4---|----------------|----------------|

G|----------------|----------------|----------------|----------------|
D|----------------|----------------|1-----------1---|1-----------1---|
A|1---------------|1---------1---1-|----------------|----------------|
E|----------------|----------------|----------------|----------------|

  Been  so    long           I'm    living                         I've
G|----------------|----------------|----------------|----------------|
D|----------------|----------------|1-----------1---|1-----------1---|
A|----------------|----------------|----------------|----------------|
E|4-----------4---|4-----------4---|----------------|----------------|

  been  Ca    and  I won't   until  I     go    back       a
E|----------------|----------------|----------------|------------|
D|----------------|----------------|----------------|------------|
A|1-----------1---|1-----------1---|1-----------1---|------------|
E|----------------|----------------|----------------|------------|

  gain
G|----------------|----------------|
D|----------------|----------------|
A|----------------|----------------|
E|4-----4-4-------|4-----------4---|

  [Bridge]
G|----------------|----------------|----------------|----------------|
D|----------------|----------------|----------------|----------------|
A|4-----------4---|4-----------4---|3-----------3---|3-----3-3---3---|
E|----------------|----------------|----------------|----------------|

G|----------------|----------------|----------------|----------------|
D|----------------|----------------|1-----------1---|----------------|
A|1-----------1---|----------------|----------------|----------------|
E|----------------|4-----------4---|----------------|4-----------4---|

G|----------------|----------------|
D|----------------|----------------|
A|1-----------1---|1-----------1---|
E|----------------|----------------|

  [Chorus]
  Been  too   long             I    can't
G|----------------|----------------|----------------|----------------|
D|----------------|----------------|1-----------1---|1-----------1---|
A|----------------|----------------|----------------|----------------|
E|4-----------4---|4-----------4---|----------------|----------------|

G|----------------|----------------|----------------|----------------|
D|----------------|----------------|1-----------1---|1-----------1---|
A|1---------------|1---------1---1-|----------------|----------------|
E|----------------|----------------|----------------|----------------|

  Been  so    long           I'm    living                         I've
G|----------------|----------------|----------------|----------------|
D|----------------|----------------|1-----------1---|1-----------1---|
A|----------------|----------------|----------------|----------------|
E|4-----------4---|4-----------4---|----------------|----------------|

  been  Ca    and  I won't   until  I     go    back       a
E|----------------|----------------|----------------|------------|
D|----------------|----------------|----------------|------------|
A|1-----------1---|1-----------1---|1-----------1---|------------|
E|----------------|----------------|----------------|------------|

  gain                           I've
G|----------------|----------------|
D|----------------|----------------|
A|----------------|----------------|
E|4-----4-4-------|4-----------4---|

  been  Ca    and  I won't   until  I     go    back       a
E|----------------|----------------|----------------|------------|
D|----------------|----------------|----------------|------------|
A|1-----------1---|1---------------|1-----------1---|------------|
E|----------------|----------------|----------------|------------|

  gain
G|----------------|----------------|
D|----------------|----------------|
A|----------------|----------------|
E|4-----------4---|4-----------4---|

G|----------------|----------------|----------------|----------------|
D|----------------|----------------|1-----------1---|----------------|
A|1-----------1---|1---------------|-------1--------|----------------|
E|----------------|----------------|----------------|----------------|

The shorter bars have 3 beats. 
Suggest correction
Give kudos to tab author, rate the tab!
1 2 3 4 5
comments
print report bad tab
guest
You may want to rate the tab now too:
select rating
Wanna post a correction for this tab? Suggest correction