Oops, an error
Loading. Please wait.

Breaking Up Is Hard To Do Bass Tab

16 views 1 this week
no commentswrite comment
1 2 3 4 5
3 more votes to show rating
add to favorites
launch autoscroll
font size
0
reset
guitar tuner
Autoscroll
slow
fast
+/-
esc
set tempo
stop
Help us to improve Ultimate-Guitar.com Take our survey!
×
Author
Difficulty
novice
About this tab version
The song was co-written by Neil Sedaka and Howard Greenfield. Was this info helpful? Yes No
  [Intro]
G|----------------|----------------|----------------|----------------|
D|----------------|----------------|----------------|----------------|
A|3-----3-0-----0-|----------------|3-----3-0-----0-|----------------|
E|----------------|1-----1-3-----3-|----------------|1-----1-3-----3-|

G|----------------|----------------|----------------|----------------|
D|----------------|----------------|----------------|----------------|
A|3-----3-0-----0-|----------------|3-------0-----0-|3-----------0---|
E|----------------|1-----1-3-----3-|----------------|----------------|
 
  [Verse]
G|----------------|----------------|----------------|----------------|
D|----------------|----------------|----------------|----------------|
A|3-----3-0-----0-|----------------|3-----3-0-----0-|----------------|
E|----------------|1-----1-3-----3-|----------------|1-----1-3-----3-|

G|----------------|----------------|----------------|----------------|
D|--------2-----2-|--------0-------|0-----0-0-----0-|----------------|
A|3-----3---------|0-----0-------0-|----------------|----------------|
E|----------------|----------------|----------------|3-----------3---|

  [Verse]
G|----------------|----------------|----------------|----------------|
D|----------------|----------------|----------------|----------------|
A|3-----3-0-----0-|----------------|3-----3-0-----0-|----------------|
E|----------------|1-----1-3-------|----------------|1-----1-3-----3-|

G|----------------|----------------|----------------|----------------|
D|--------2-----2-|0-----0---------|----------------|----------------|
A|3-----3---------|--------0-----0-|--------3-----3-|3-----------0---|
E|----------------|----------------|3-----3---------|----------------|

  [Bridge]
G|----------------|----------------|----------------|----------------|
D|--------3-----3-|--------3-------|--------3-----3-|--------3-------|
A|3-----3---------|3-----3-------3-|1-----1---------|1-----1-------1-|
E|----------------|----------------|----------------|----------------|

G|----------------|----------------|----------------|----------------|
D|--------1-----1-|--------1-----1-|----------------|----------------|
A|1-----1---------|4-----4---------|----------------|----------------|
E|----------------|----------------|4---4---4---4---|3---3---3-3-3-3-|

G|----------------|
D|----------------|
A|----------------|
E|3-----------3---|

  [Verse]
G|----------------|----------------|----------------|----------------|
D|----------------|----------------|----------------|----------------|
A|3-----3-0-----0-|----------------|3-----3-0-----0-|----------------|
E|----------------|1-----1-3-----3-|----------------|1-----1-3-----3-|

G|----------------|----------------|----------------|----------------|
D|--------2-----2-|----------------|0-----0---------|----------------|
A|3-----3---------|--------0-----0-|----------------|3-----------0---|
E|----------------|3-----3---------|--------3-----3-|----------------|

  [Bridge]
G|----------------|----------------|----------------|----------------|
D|------3-3-------|------3-3-------|0-----0---------|------1-1-------|
A|3-------------3-|3-------------3-|--------1-----1-|1-------------1-|
E|----------------|----------------|----------------|----------------|

G|----------------|----------------|----------------|----------------|
D|------1-1-------|------1-1-------|----------------|----------------|
A|4-------------4-|1-------------1-|----------------|----------------|
E|----------------|----------------|4---4---4---4---|3---3-3-3-3-3-3-|

G|----------------|
D|----------------|
A|----------------|
E|3-----------3---|

  [Verse]
G|----------------|----------------|----------------|----------------|
D|----------------|----------------|----------------|----------------|
A|3-----3-0-----0-|----------------|3-----3-0-----0-|----------------|
E|----------------|1-----1-3-----3-|----------------|1-----1-3-----3-|

G|----------------|----------------|----------------|----------------|
D|----------------|--------2-------|0-----0---------|----------------|
A|3-----3---------|0-----0-------0-|----------------|3-----3-0-----0-|
E|--------0-----0-|----------------|--------3-----3-|----------------|

  [Outro]
G|----------------|----------------|----------------|----------------|
D|----------------|----------------|----------------|----------------|
A|----------------|3-----3-0-----0-|----------------|3-----3-0-----0-|
E|1-----1-3-----3-|----------------|1-----1-3-----3-|----------------|
Suggest correction
Give kudos to tab author, rate the tab!
1 2 3 4 5
comments
print report bad tab
guest
You may want to rate the tab now too:
select rating
Wanna post a correction for this tab? Suggest correction