Oops, an error
Loading. Please wait.

Crying In The Rain Bass

25 views 1 this week
no commentswrite comment
1 2 3 4 5
3 more votes to show rating
add to favorites
launch autoscroll
font size
0
reset
guitar tuner
Autoscroll
slow
fast
+/-
esc
set tempo
stop
Author
Difficulty
novice
About this tab version
This song was written by Howard Greenfield and Carole King in the early 60s. Was this info helpful? Yes No
  [Intro]
G|----------------|----------------|----------------|----------------|
D|3-----3---------|--------3-----3-|--------3-3-----|3---------------|
A|--------1-----1-|3-----3---------|1---1-----------|----------------|
E|----------------|----------------|----------------|----------------|
 
  [Verse]
G|----------------|----------------|----------------|----------------|
D|3-----3---------|--------3-----3-|3-----3---------|--------3-----3-|
A|--------1-----1-|3-----3---------|--------1-----1-|3-----3---------|
E|----------------|----------------|----------------|----------------|

G|----------------|----------------|----------------|----------------|
D|3-----3---------|--------0-----0-|----------------|----------------|
A|--------1-----1-|0-----0---------|1-----1-1-----1-|3---------------|
E|----------------|----------------|----------------|----------------|

G|----------------|----------------|
D|0---------------|0-------------0-|
A|----------------|----------------|
E|----------------|----------------|

  [Verse]
G|----------------|----------------|----------------|----------------|
D|3-----3---------|--------3-----3-|3-----3---------|--------3-----3-|
A|--------1-----1-|3-----3---------|--------1-----1-|3-----3---------|
E|----------------|----------------|----------------|----------------|

G|----------------|----------------|----------------|----------------|
D|3-----3---------|--------0-----0-|----------------|----------------|
A|--------1-----1-|0-----0---------|1-----1-1-----1-|3---------------|
E|----------------|----------------|----------------|----------------|

G|----------------|----------------|
D|0---------------|0-------------0-|
A|----------------|----------------|
E|----------------|----------------|

  [Bridge]  
G|----------------|----------------|----------------|----------------|
D|----------------|----------------|----------------|3-----3-3-----3-|
A|1-----1-1-----1-|----------------|3-----3-3-----3-|----------------|
E|----------------|3-----3-3-----3-|----------------|----------------|

G|----------------|----------------|----------------|----------------|
D|0-----0-0-----0-|----------------|----------------|----------------|
A|----------------|1-----1-1-----1-|1---1---3---3---|3---------------|
E|----------------|----------------|----------------|----------------|

  [Verse]
G|----------------|----------------|----------------|----------------|
D|3-----3---------|--------3-----3-|3-----3---------|--------3-----3-|
A|--------1-----1-|3-----3---------|--------1-----1-|3-----3---------|
E|----------------|----------------|----------------|----------------|

G|----------------|----------------|----------------|----------------|
D|3-----3---------|--------0-----0-|----------------|----------------|
A|--------1-----1-|0-----0---------|1-----1-1-----1-|3---------------|
E|----------------|----------------|----------------|----------------|

  rain                 I'll         rain
G|----------------|----------------|----------------|----------------|
D|0---------------|0---------------|0---------------|3---------------|
A|----------------|----------------|----------------|----------------|
E|----------------|----------------|----------------|----------------|
Suggest correction
Give kudos to tab author, rate the tab!
1 2 3 4 5
comments
print report bad tab
guest
You may want to rate the tab now too:
select rating
Wanna post a correction for this tab? Suggest correction