Oops, an error
Loading. Please wait.

Hard Rock Cafe Bass Tab

19 views 3 this week
no commentswrite comment
1 2 3 4 5
3 more votes to show rating
add to favorites
launch autoscroll
font size
0
reset
guitar tuner
Autoscroll
slow
fast
+/-
esc
set tempo
stop
Help us to improve Ultimate-Guitar.com Take our survey!
×
Author
Difficulty
intermediate
About this tab version
This song rose to number 30 on Billboard in 1977. Was this info helpful? Yes No
  [Intro]
G|----------------|----------------|----------------|----------------|
D|----------------|----------------|----------------|----------------|
A|----------------|----------------|----------------|----------------|
E|3---------------|3-----------3---|3-----------3---|3---3---3---3---|

G|----------------|----------------|----------------|----------------|
D|----------------|----------------|----------------|----------------|
A|3-----3---------|----------------|3-----3---------|----------------|
E|--------1-----1-|3-----3-1---3---|--------1-----1-|3---3-----------|

  [Verse]
G|----------------|----------------|----------------|----------------|
D|----------------|----------------|----------------|----------------|
A|3-----3---------|----------------|3-----3---------|----------------|
E|--------1-----1-|3-----3-1---3---|--------1-----1-|3-----3-1---3---|

G|----------------|----------------|----------------|----------------|
D|----------------|----------------|----------------|----------------|
A|3-----3---------|----------------|3-----3---------|----------------|
E|--------1-----1-|3-----3-1---3---|--------1-----1-|3-----3-1---3---|

G|----------------|----------------|----------------|----------------|
D|----------------|----------------|----------------|----------------|
A|3-----3---------|--------3-------|3-----3---------|----------------|
E|--------1-----1-|3-----3-----3---|--------1-----1-|3-----3-0---3---|

G|----------------|----------------|----------------|----------------|
D|----------------|----------------|----------------|----------------|
A|0-----0-0-----0-|--------3-------|----------------|----------------|
E|----------------|3-----3-----3---|1-------1-------|3---------------|

G|----------------|----------------|----------------|----------------|
D|----------------|----------------|----------------|----------------|
A|3-----3---------|----------------|3-----3---------|----------------|
E|--------1-----1-|3-----3-1---3---|--------1-----1-|3-----3-1---3---|

G|----------------|----------------|----------------|----------------|
D|----------------|----------------|----------------|----------------|
A|3-----3---------|----------------|3-----3---------|----------------|
E|--------1-----1-|3-----3-1---3---|--------1-----1-|3---3-----------|

  [Verse]
G|----------------|----------------|----------------|----------------|
D|----------------|----------------|----------------|----------------|
A|3-----3---------|----------------|3-----3---------|----------------|
E|--------1-----1-|3-----3-1---3---|--------1-----1-|3-----3-1---3---|

G|----------------|----------------|----------------|----------------|
D|----------------|----------------|----------------|----------------|
A|3-----3---------|----------------|3-----3---------|----------------|
E|--------1-----1-|3-----3-1---3---|--------1-----1-|3-----3-1---3---|

G|----------------|----------------|----------------|----------------|
D|----------------|----------------|----------------|----------------|
A|3-----3---------|--------3-------|3-----3---------|----------------|
E|--------1-----1-|3-----3-----3---|--------1-----1-|3-----3-0---3---|

G|----------------|----------------|----------------|----------------|
D|----------------|----------------|----------------|----------------|
A|0-----0-0-----0-|--------3-------|----------------|----------------|
E|----------------|3-----3-----3---|1-------1-------|3---------------|

G|----------------|----------------|----------------|----------------|
D|----------------|----------------|----------------|----------------|
A|3-----3---------|----------------|3-----3---------|----------------|
E|--------1-----1-|3-----3-1---3---|--------1-----1-|3-----3-1---3---|

G|----------------|----------------|----------------|----------------|
D|----------------|----------------|----------------|----------------|
A|3-----3---------|----------------|3-----3---------|----------------|
E|--------1-----1-|3-----3-1---3---|--------1-----1-|3-----------3---|

  [Bridge]
G|----------------|----------------|----------------|----------------|
D|----------------|----------------|----------------|----------------|
A|3-----3---------|----------------|3-----3---------|----------------|
E|--------1-----1-|3-----3-1---3---|--------1-----1-|3-----3-1---3---|

G|----------------|----------------|----------------|----------------|
D|----------------|----------------|----------------|----------------|
A|3-----3---------|----------------|3-----3---------|----------------|
E|--------1-----1-|3-----3-1---3---|--------1-----1-|3-----3-1---3---|

G|----------------|----------------|----------------|----------------|
D|----------------|----------------|----------------|----------------|
A|3-----3---------|----------------|3-----3---------|----------------|
E|--------1-----1-|3-----3-1---3---|--------1-----1-|3-----3-1---3---|

G|----------------|----------------|----------------|----------------|
D|----------------|----------------|----------------|----------------|
A|3-----3---------|--------3-------|3-----3---------|----------------|
E|--------1-----1-|3-----3-----3---|--------1-----1-|3-----3-0---3---|

G|----------------|----------------|----------------|----------------|
D|----------------|----------------|----------------|----------------|
A|0---------------|0---------------|----------------|----------------|
E|----------------|----------------|4---------------|4---------------|

G|----------------|----------------|----------------|----------------|
D|----------------|----------------|0---------------|0---------------|
A|3---------------|----------------|----------------|----------------|
E|----------------|3---------------|----------------|----------------|

G|----------------|----------------|----------------|----------------|
D|3---------------|3---------------|----------------|----------------|
A|----------------|----------------|----------------|----------------|
E|----------------|----------------|3---------------|3---------------|

G|----------------|----------------|----------------|----------------|
D|----------------|0---------------|----------------|----------------|
A|0---------------|----------------|----------------|----------------|
E|----------------|----------------|3---------------|3---------------|

  [Outro]
G|----------------|----------------|----------------|----------------|
D|----------------|----------------|----------------|----------------|
A|3-----3---------|----------------|3-----3---------|----------------|
E|--------1-----1-|3-----3-1---3---|--------1-----1-|3-----3-1---3---|

G|----------------|----------------|----------------|----------------|
D|----------------|----------------|----------------|----------------|
A|3-----3---------|----------------|3-----3---------|----------------|
E|--------1-----1-|3-----3-1---3---|--------1-----1-|3-----3-1---3---|

G|----------------|----------------|----------------|----------------|
D|----------------|----------------|----------------|----------------|
A|3-----3---------|----------------|3-----3---------|----------------|
E|--------1-----1-|3-----3-1---3---|--------1-----1-|3-----3-1---3---|

G|----------------|----------------|----------------|----------------|
D|----------------|----------------|----------------|----------------|
A|3-----3---------|----------------|3-----3---------|----------------|
E|--------1-----1-|3-----3-1---3---|--------1-----1-|3-----3-1---3---|

G|----------------|----------------|----------------|----------------|
D|----------------|----------------|----------------|----------------|
A|3-----3---------|----------------|3-----3---------|----------------|
E|--------1-----1-|3-----3-1---3---|--------1-----1-|3-----3-1---3---|

G|----------------|----------------|----------------|----------------|
D|----------------|----------------|----------------|----------------|
A|3-----3---------|----------------|3-----3---------|----------------|
E|--------1-----1-|3-----3-1---3---|--------1-----1-|3-----3-1---3---|

G|----------------|----------------|----------------|----------------|
D|----------------|----------------|----------------|----------------|
A|--------3-------|----------------|--------3-------|------3-3-------|
E|1---------------|3-------1-------|1---------------|1---3-----------|
Suggest correction
Give kudos to tab author, rate the tab!
1 2 3 4 5
comments
print report bad tab
guest
You may want to rate the tab now too:
select rating
Wanna post a correction for this tab? Suggest correction