Oops, an error
Loading. Please wait.

High Out Of Time Bass Tab

19 views 3 this week
no commentswrite comment
1 2 3 4 5
3 more votes to show rating
add to favorites
launch autoscroll
font size
0
reset
guitar tuner
Autoscroll
slow
fast
+/-
esc
set tempo
stop
Help us to improve Ultimate-Guitar.com Take our survey!
×
Author
Difficulty
novice
About this tab version
The song features David Crosby and Graham Nash on vocals. Was this info helpful? Yes No
 [Intro]
G|----------------|----------------|----------------|----------------|
D|0-------0-------|----------------|0-------0-------|----------------|
A|----------------|0-------0-------|----------------|0-------0-------|
E|----------------|----------------|----------------|----------------|

G|----------------|
D|----------------|
A|0-------0-------|
E|----------------|

  [Verse]
G|----------------|----------------|----------------|----------------|
D|0-------0-------|--------2-------|--------2-------|------2-------2-|
A|----------------|0---------------|0---------------|0-------0-------|
E|----------------|----------------|----------------|----------------|

G|----------------|----------------|----------------|----------------|
D|----------------|----------------|----------------|------2-------2-|
A|0-----0-0-----2-|----------------|2---------------|0-------0-------|
E|----------------|2---2---2---2---|--------0-------|----------------|

G|----------------|
D|----------------|
A|0-----0-0-----0-|
E|----------------|

  [Verse]
G|----------------|----------------|----------------|----------------|
D|0-------0-------|--------2-------|--------2-------|------2-------2-|
A|----------------|0---------------|0---------------|0-------0-------|
E|----------------|----------------|----------------|----------------|

G|----------------|----------------|----------------|----------------|
D|----------------|----------------|----------------|------2---------|
A|0-----0-0-----2-|----------------|2---------------|0-------0---0---|
E|----------------|2---2---2---2---|--------0-------|----------------|

G|----------------|
D|----------------|
A|0-----0-0-----0-|
E|----------------|

  [Break]
G|----------------|----------------|----------------|----------------|
D|----------------|----------------|0---0-----------|----------------|
A|----------------|----------------|--------0---0---|----------------|
E|0---0---0---0---|0---0---0---0---|----------------|0---0---0---0---|

G|----------------|----------------|----------------|----------------|
D|----------------|----------------|----------------|----------------|
A|0---0---0---0---|0---0---0---0---|----------------|----------------|
E|----------------|----------------|0---0---0---0---|0---0---0---0---|

  [Verse]
G|----------------|----------------|----------------|----------------|
D|0-------0-------|--------2-------|--------2-------|------2-------2-|
A|----------------|0---------------|0---------------|0-------0-------|
E|----------------|----------------|----------------|----------------|

G|----------------|----------------|----------------|----------------|
D|----------------|----------------|----------------|------2-------2-|
A|0-----0-0-----0-|----------------|2---------------|0-------0-------|
E|----------------|2---2---2---2---|--------0-------|----------------|

G|----------------|
D|----------------|
A|0-----0---------|
E|--------0---0---|

   [Outro]
G|----------------|----------------|----------------|----------------|
D|--------2-----2-|------2-------2-|------2-------2-|----------------|
A|0-----0---------|0-------0-------|0-------0-------|----------------|
E|----------------|----------------|----------------|2---2---2---2---|

G|----------------|----------------|----------------|----------------|
D|--------2-------|------2-------2-|------2---------|----------------|
A|2---------------|0-------0-------|0-------0---0---|----------------|
E|----------------|----------------|----------------|2---2---2---2---|

G|----------------|----------------|
D|--------2-------|------2-------2-|
A|2---------------|0-------0-------|
E|----------------|----------------|

G|----------------|----------------|----------------|
D|--------2---2---|--------2---2---|----------------|
A|0-----0---------|0-----0---------|0---------------|
E|----------------|----------------|----------------|

Suggest correction
Give kudos to tab author, rate the tab!
1 2 3 4 5
comments
print report bad tab
guest
You may want to rate the tab now too:
select rating
Wanna post a correction for this tab? Suggest correction