Oops, an error
Loading. Please wait.

I Believe In Humanity Bass Tab

13 views 1 this week
no commentswrite comment
1 2 3 4 5
3 more votes to show rating
add to favorites
launch autoscroll
font size
0
reset
guitar tuner
Autoscroll
slow
fast
+/-
esc
set tempo
stop
Help us to improve Ultimate-Guitar.com Take our survey!
×
Author
Difficulty
novice
About this tab version
This song rose to number 28 on Billboard in 1973. Was this info helpful? Yes No
  [Intro]
G|----------------|----------------|----------------|----------------|
D|0---------------|0---------------|0---------------|0---------------|
A|----------------|----------------|----------------|----------------|
E|----------------|----------------|----------------|----------------|

G|----------------|----------------|----------------|----------------|
D|0---------------|0---------------|0---------------|0---------------|
A|--------------0-|--------------0-|--------------0-|--------------0-|
E|----------------|----------------|----------------|----------------|

  [Verse]
G|----------------|----------------|----------------|----------------|
D|0-----0---------|0-----0---------|0-----0---------|0-----0---------|
A|--------0-----0-|--------0-----0-|--------0-----0-|--------0-----0-|
E|----------------|----------------|----------------|----------------|

G|0-----0---------|0-----0---------|0-----0---------|0-----0---------|
D|--------0-----0-|--------0-----0-|--------0-----0-|--------0-----0-|
A|----------------|----------------|----------------|----------------|
E|----------------|----------------|----------------|----------------|

G|----------------|----------------|----------------|----------------|
D|0-----0---------|0-----0---------|0-----0---------|0-----0---------|
A|--------0-----0-|--------0-----0-|--------0-----0-|--------0-----0-|
E|----------------|----------------|----------------|----------------|

  [Chorus]
G|----------------|----------------|----------------|----------------|
D|----------------|----------------|3---3---3-------|0---0---0-------|
A|0---0---0-------|3---3---3-------|----------------|----------------|
E|----------------|----------------|----------------|----------------|

G|----------------|----------------|----------------|----------------|
D|0-----0---------|0-----0---------|0-----0---------|0-----0---------|
A|--------0-----0-|--------0-----0-|--------0-----0-|--------0-----0-|
E|----------------|----------------|----------------|----------------|

  [Verse]
G|----------------|----------------|----------------|----------------|
D|0-----0---------|0-----0---------|0-----0---------|0-----0---------|
A|--------0-----0-|--------0-----0-|--------0-----0-|--------0-----0-|
E|----------------|----------------|----------------|----------------|

G|----------------|----------------|----------------|----------------|
D|----------------|----------------|----------------|----------------|
A|--------------0-|3-----3-3-----0-|----------------|--------------3-|
E|3-----3-3-------|----------------|3-----3-3-----3-|3-----3-3-------|

G|----------------|----------------|----------------|----------------|
D|0-----0---------|0-----0---------|0-----0---------|0-----0---------|
A|--------0-----0-|--------0-----0-|--------0-----0-|--------0-----0-|
E|----------------|----------------|----------------|----------------|

  [Chorus]
G|----------------|----------------|----------------|----------------|
D|----------------|----------------|3---3---3-------|0---0---0-------|
A|0---0---0-------|3---3---3-------|----------------|----------------|
E|----------------|----------------|----------------|----------------|

G|----------------|----------------|----------------|----------------|
D|0-----0---------|0-----0---------|0-----0---------|0-----0---------|
A|--------0-----0-|--------0-----0-|--------0-----0-|--------0-----0-|
E|----------------|----------------|----------------|----------------|

  [Bridge]
G|----------------|----------------|----------------|----------------|
D|0-----0---------|0-----0---------|0-----0---------|0-----0---------|
A|--------0-----0-|--------0-----0-|--------0-----0-|--------0-----0-|
E|----------------|----------------|----------------|----------------|

G|----------------|----------------|----------------|----------------|
D|----------------|----------------|----------------|----------------|
A|0---------------|0---------------|0---------------|0---------------|
E|----------------|----------------|----------------|----------------|

G|----------------|----------------|----------------|----------------|
D|----------------|0---------------|----------------|----------------|
A|0---------------|----------------|1-----1-1-----1-|0-----0-0-----3-|
E|----------------|----------------|----------------|----------------|

  [Outro]
G|----------------|----------------|----------------|----------------|
D|0-----0---------|0-----0---------|0-----0---------|0-----0---------|
A|--------0-----0-|--------0-----0-|--------0-----0-|--------0-----0-|
E|----------------|----------------|----------------|----------------|
  
  Keep repeating the above 4 bars
Suggest correction
Give kudos to tab author, rate the tab!
1 2 3 4 5
comments
print report bad tab
guest
You may want to rate the tab now too:
select rating
Wanna post a correction for this tab? Suggest correction