Oops, an error
Loading. Please wait.

I Feel The Earth Move Bass Tab

version 2
version 2

Whole song

  • This song is one half of the double A sided single... Show more
  • This version offers more details.

Interactive

28 views 3 this week
no commentswrite comment
1 2 3 4 5
3 more votes to show rating
add to favorites
launch autoscroll
font size
0
reset
guitar tuner
Autoscroll
slow
fast
+/-
esc
set tempo
stop
Help us to improve Ultimate-Guitar.com Take our survey!
×
Author
Difficulty
novice
About this tab version
This song is one half of the double A sided single, the flip side which is "It's Too Late". Was this info helpful? Yes No
  4 beats per bar.
  [Intro]                         I feel
G|--------|--------|--------|--------|
D|0---0---|--------|0---0---|--------|
A|--------|--------|--------|--------|
E|--------|3---3---|--------|3---3---|

  [Verse]
G|--------|0---0---|--------|0---0---|--------|0---0---|--------|--------|
D|0---0---|--------|0---0---|--------|0---0---|--------|0---0---|--------|
A|--------|--------|--------|--------|--------|--------|--------|0---0---|
E|--------|--------|--------|--------|--------|--------|--------|--------|

  [Chorus]
G|--------|--------|--------|--------|--------|--------|--------|--------|
D|3---3---|--------|--------|--------|3---3---|--------|--------|--------|
A|--------|1---1---|--------|3---3---|--------|1---1---|--------|1---1---|
E|--------|--------|3---3---|--------|--------|--------|3---3---|--------|

  [Verse]
G|--------|0---0---|--------|0---0---|--------|0---0---|--------|0---0---|
D|0---0---|--------|0---0---|--------|0---0---|--------|0---0---|--------|
A|--------|--------|--------|--------|--------|--------|--------|--------|
E|--------|--------|--------|--------|--------|--------|--------|--------|

G|--------|--------|
D|0---0---|--------|
A|--------|--------|
E|--------|0---0---|

  [Break]
G|--------|--------|0---0---|0---0---|--------|--------|0---0---|0---0---|
D|0---0---|0---0---|--------|--------|0---0---|0---0---|--------|--------|
A|--------|--------|--------|--------|--------|--------|--------|--------|
E|--------|--------|--------|--------|--------|--------|--------|--------|

G|--------|--------|0---0---|0---0---|--------|--------|0---0---|0---0---|
D|0---0---|0---0---|--------|--------|0---0---|0---0---|--------|--------|
A|--------|--------|--------|--------|--------|--------|--------|--------|
E|--------|--------|--------|--------|--------|--------|--------|--------|

  [Chorus]
G|--------|--------|--------|--------|--------|--------|--------|--------|
D|3---3---|--------|--------|--------|3---3---|--------|--------|--------|
A|--------|1---1---|--------|3---3---|--------|1---1---|--------|1---1---|
E|--------|--------|3---3---|--------|--------|--------|3---3---|--------|

  [Outro]
G|--------|--------|--------|--------|
D|0---0---|0---0---|0---0---|0---0---|
A|--------|--------|--------|--------|
E|--------|--------|--------|--------|

G|--------|0---0---|--------|0---0---|--------|0---0---|--------|0---0---|
D|0---0---|--------|0---0---|--------|0---0---|--------|0---0---|--------|
A|--------|--------|--------|--------|--------|--------|--------|--------|
E|--------|--------|--------|--------|--------|--------|--------|--------|

G|--------|--------|--------|--------|--------|--------|--------|--------|
D|0---0---|--------|0---0---|--------|0---0---|--------|0---0---|--------|
A|--------|--------|--------|--------|--------|--------|--------|--------|
E|--------|3---3---|--------|3---3---|--------|3---3---|--------|3---3---|

G|--------|--------|--------|--------|--------|--------|--------|--------|
D|0---0---|--------|0---0---|--------|0---0---|--------|0---0---|--------|
A|--------|--------|--------|--------|--------|--------|--------|--------|
E|--------|3---3---|--------|3---3---|--------|3---3---|--------|3---3---|

G|--------|--------|--------|--------|--------|
D|0---0---|--------|0---0---|--------|0-------|
A|--------|--------|--------|--------|--------|
E|--------|3---3---|--------|3---3---|--------|

This tab is very simplified.
Suggest correction
Give kudos to tab author, rate the tab!
1 2 3 4 5
comments
print report bad tab
guest
You may want to rate the tab now too:
select rating
Wanna post a correction for this tab? Suggest correction