Oops, an error
Loading. Please wait.

I Feel The Earth Move Bass Tab

version 3
version 3

Whole song

  • This song is one half of the double A sided single... Show more
  • This version offers more details.

Interactive

16 views 3 this week
no commentswrite comment
1 2 3 4 5
3 more votes to show rating
add to favorites
launch autoscroll
font size
0
reset
guitar tuner
Autoscroll
slow
fast
+/-
esc
set tempo
stop
Help us to improve Ultimate-Guitar.com Take our survey!
×
Author
Difficulty
intermediate
About this tab version
This version offers more details. Was this info helpful? Yes No
I FEEL THE EARTH MOVE (Bassline)

As recorded by Carole King
(From the 1971 Album TAPESTRY)

Words and Music by Carole King

Transcribed by Slowhand


Gtr I (E A D G) - 'Charles "Charlie" Larkey - Bass'


 Intro
  Q=119
 4/4
  Gtr I
  W          W          E E E E E E E E   E E E E E E E E
|----------|----------|-----5-5-----5-5-|-----5-5-----5-5-||
|----------|----------|-----------------|-----------------||
|----------|----------|-3-3-----3-3-----|-3-3-----3-3-----||
|----------|----------|-----------------|-----------------||


 Chorus
  E E E E E E E E   E E E E E E E E   E E E E E E E E   E E E E E E S S E
|-----5-5-----5-5-|-----5-5-----5-5-|-----5-5-----5-5-|-----5-5-----------|
|-----------------|-----------------|-----------------|---------------0-1-|
|-3-3-----3-3-----|-3-3-----3-3-----|-3-3-----3-3-----|-3-3-----3-3-3-----|
|-----------------|-----------------|-----------------|-------------------|


  E E E S S +S  S E E E   E E Q  S S E E E
|-----------------------|--------2-2-0---0-|
|-3-3---------------1-3-|---3-3--------3---|
|-----0-0-1-(1)-1-3-----|------------------|
|-----------------------|------------------|


  E E E E E E E E   E E E E E E E E
|-----5-5-----5-5-|-----5-5---------||
|-----------------|---------------1-||
|-3-3-----3-3-----|-3-3-----3-1p0---||
|-----------------|-----------------||


 1st Verse
  +H     E E E E   +H     E E E E   H    +E  E E E   +H.      +E  E
|----------------|----------------|----------1---3-|-(3)------(3)-3--|
|-(1)------------|--------------1-|-3----(3)-------|-----------------|
|----------------|----------1-3---|----------------|-----------------|
|----------1-3-4-|-(4)------------|----------------|-----------------|


  H    E E E E   +H.      Q    H    +E  E E E   +H     H
|--------------|-------------|----------------|--------------||
|-1------------|-------------|-3----(3)-------|--------5\----||
|--------------|----------3--|----------3---1-|-(1)----------||
|--------1-3-4-|-(4)---------|------------3---|--------------||


 Chorus
  E E E E E E E E   E E E E E E E E   E E E E E E E E   E E E E E E S S E
|-----5-5-----5-5-|-----5-5-----5-5-|-----5-5-----5-5-|-----5-5-----------|
|-----------------|-----------------|-----------------|-------------0-0-1-|
|-3-3-----3-3-----|-3-3-----3-3-----|-3-3-----3-3-----|-3-3-----3-3-------|
|-----------------|-----------------|-----------------|-------------------|


  E E E S S +S  S E E E   E E Q  S S E E E   E E E E E E E E   E E E E E E E E
|-----------------------|--------2-2-0---0-|-----5-5-----5-5-|-----5-5-----5-5-|
|-3-3---------------1-3-|-3-3----------3---|-----------------|-----------------|
|-----0-0-1-(1)-1-3-----|------------------|-3-3-----3-3-----|-3-3-----3-3-----|
|-----------------------|------------------|-----------------|-----------------|


                                        Piano Solo
  E E E E E E E E   E Q  E +E  E +Q      E E E E E E E E   E E E E E E E E
|-----5-5-----5-5-|-------------------||-----5-5-----5-5-|-----5-5-----5-5--|
|-----------------|-------------------||-----------------|------------------|
|-3-3-----3-3-----|-------------------||-3-3-----3-3-----|-3-3-----3-3------|
|-----------------|-0-1--2-(2)-3-(3)--||-----------------|------------------|


  E E E E E E E E   E E E E E E E E   E E E E E E E E   E E E E E E E E
|-----5-5-----5-5-|-----------------|-----5-5-----5-5-|-----5-5-----5-5--|
|-----------------|-----3-3-----3-3-|-----------------|------------------|
|-3-3-----3-3-----|-----------------|-3-3-----3-3-----|-3-3-----3-3------|
|-----------------|-1-1-----1-1-----|-----------------|------------------|


  E E E E E E E E   E E E E E E E E
|-----5-5-----5-5-|-----------------|
|-----------------|-----3-3-----3-3-|
|-3-3-----3-3-----|-----------------|
|-----------------|-1-1-----1-1-----|


  E E E E E S S E E   +E  S S E E S S E S S E
|-----5-5-----------|-----------------------5--|
|-------------------|-------------------8-6----|
|-3-3-----3-3-5-6-8-|-(8)---------6-6-8--------|
|-------------------|-----5-5-6-8--------------|


  S S E E E E S S E E   +E  S S E E S S E S S E   E E E E E S S E E
|-------5-5-----------|-----------------------5-|-----5-5-----------|
|---------------------|-------------------7-7---|-------------------|
|-3-3-3-----3-3-5-6-8-|-(8)---------6-6-8-------|-3-3-----3-3-5-6-8-|
|---------------------|-----5-5-6-8-------------|-------------------|


                                                               2nd Verse
  +E  S S E E S S E S S E   E E E E E E E E   E Q  E E E E E    W
|-----------------------5-|-----5-5-----5-5-|----------------||------|
|-------------------8-6---|-----------------|-3-3--3---------||-1----|
|-(8)---------6-6-8-------|-3-3-----3-3-----|--------1-1---1-||------|
|-----5-5-6-8-------------|-----------------|----------------||------|


  +W           W          W          H    E E E E
|------------|----------|----------|---------------|
|-(1)--------|----------|----------|-1-------------|
|------------|----------|----------|---------------|
|------------|----------|----------|--------1-3-4--|


  +H     E E E E   W          E E E E   E  E E  E    E E E E E E E E
|----------------|----------|---------/12-12---12\-|-----5-5-----5-5--|
|--------------1-|-3--------|-8-8---8--------------|------------------|
|----------1-3---|----------|----------------------|-3-3-----3-3------|
|-(4)------------|----------|----------------------|------------------|


                                                         Chorus
  E E E E E E E E   E E E E E E E E   E E E E E E E E     E E E E E E E E
|-----5-5-----5-5-|-----5-5-----5-5-|-----5-5---------||------5-5-----5-5--|
|-----------------|-----------------|-----------1---3-||o------------------|
|-3-3-----3-3-----|-3-3-----3-3-----|-3-3-----3-------||o-3-3-----3-3------|
|-----------------|-----------------|-----------------||-------------------|


  E E E E E E E E   E E E E E E E E   E E E E E E E E     E E E E E S S E E
|-----5-5-----5-5-|-----5-5-----5-5-|-----5-5-----5-5--||-----5-5-----------|
|-----------------|-----------------|-----------------o||-------------------|
|-3-3-----3-3-----|-3-3-----3-3-----|-3-3-----3-3-----o||-3-3-----3-3-5-6-8-|
|-----------------|-----------------|------------------||-------------------|


  +E  S S E E S S E S S E   E E E E E S S E E   +E  S S E E S S E S S E
|-----------------------5-|-----5-5-----------|-----------------------5--|
|-------------------8-6---|-------------------|-------------------8-6----|
|-(8)---------6-6-8-------|-3-3-----3-3-5-6-8-|-(8)---------6-6-8--------|
|-----5-5-6-8-------------|-------------------|-----5-5-6-8--------------|


  E E E E E E E E   E E E E E E E E   W          +H.      Q
|-----5-5-----5-5-|-----------------|----------|---------------||
|-----------------|-3-3-3-3-3-3-3-3-|----------|----------5\---||
|-3-3-----3-3-----|-----------------|-3--------|-(3)-----------||
|-----------------|-----------------|----------|---------------||


   Outro
    E E E E E E E E   E E E E E E E E   E E E E E E E E   E E E E E E E E
||------5-5-----5-5-|-----5-5-----5-5-|-----5-5-----5-5-|-----5-5-----5-5--||
||o-----------------|-----------------|-----------------|-----------------o||
||o-3-3-----3-3-----|-3-3-----3-3-----|-3-3-----3-3-----|-3-3-----3-3-----o||
||------------------|-----------------|-----------------|------------------||


  H.=H
  E E E E E E E E   E E E E E E E E   E E E E E E E E   E E Q  +H
|-----5-5-----5-5-|-----5-5-----5-5-|-----5-5-----5-5-|-----5--(5)----*|
|-----------------|-----------------|-----------------|---------------*|
|-3-3-----3-3-----|-3-3-----3-3-----|-3-3-----3-3-----|-3-3-----------*|
|-----------------|-----------------|-----------------|---------------*|


Duration Legend
---------------
W - whole; H - half; Q - quarter; E - 8th; S - 16th; T - 32nd; X - 64th; a - acciaccatura
+ - note tied to previous; . - note dotted; .. - note double dotted
Uncapitalized letters represent notes that are staccato (1/2 duration)
Irregular groupings are notated above the duration line
Duration letters will always appear directly above the note/fret number it represents the
duration for.  Duration letters with no fret number below them represent rests.  Multi-
bar rests are notated in the form Wxn, where n is the number of bars to rest for.  Low
melody durations appear below the staff

Tablature Legend
----------------
 h   - hammer-on
 p   - pull-off
 b   - bend
 pb  - pre-bend
 r   - bend release (if no number after the r, then release immediately)
 /\  - slide into or out of (from/to "nowhere")
 s   - legato slide
 S   - shift slide
  - natural harmonic
[n]  - artificial harmonic
n(n) - tapped harmonic
 ~   - vibrato
 tr  - trill
 T   - tap
 TP  - trem. picking
 PM  - palm muting
\n/  - tremolo bar dip; n = amount to dip
 \n  - tremolo bar down
 n/  - tremolo bar up
/n\  - tremolo bar inverted dip
 =   - hold bend; also acts as connecting device for hammers/pulls
 <>  - volume swell (louder/softer)
 x   - on rhythm slash represents muted slash
 o   - on rhythm slash represents single note slash

Misc Legend
-----------
 |  - bar
||  - double bar
||o - repeat start
o|| - repeat end
*|  - double bar (ending)
 :  - bar (freetime)
 $  - Segno
 &  - Coda
Tempo markers -  = BPM(8/16=s8/s16), where s8 = swing 8ths, s16 = swing 16ths



I feel the earth move under my feet
I feel the sky tumbling down
I feel my heart start to trembling
Whenever you're around

Oh, baby, when I see your face
Mellow as the month of May
Oh, darling, I can't stand it
When you look at me that way

I feel the earth move under my feet
I feel the sky tumbling down
I feel my heart start to trembling
Whenever you're around

Oh, darling, when you're near me
And you tenderly call my name
I know that my emotions
Are something that I just can't tame
I've just got to have you, baby

I feel the earth move under my feet
I feel the sky tumbling down, tumbling down
I feel the earth move under my feet
I feel the sky tumbling down, tumbling down

I just lose control
Down to my very soul
I get hot and cold all over

I feel the earth move under my feet
I feel the sky tumbling down
Tumbling down
Tumbling down
Tumbling down
Tumbling down
Suggest correction
Give kudos to tab author, rate the tab!
1 2 3 4 5
comments
print report bad tab
guest
You may want to rate the tab now too:
select rating
Wanna post a correction for this tab? Suggest correction