Oops, an error
Loading. Please wait.

It Might As Well Rain Until September Bass Tab

19 views 1 this week
no commentswrite comment
1 2 3 4 5
3 more votes to show rating
add to favorites
launch autoscroll
font size
0
reset
guitar tuner
Autoscroll
slow
fast
+/-
esc
set tempo
stop
Help us to improve Ultimate-Guitar.com Take our survey!
×
Author
Difficulty
novice
About this tab version
This song was Carole King's first commercial success as a singer. Was this info helpful? Yes No
  [Intro]
G|----------------|----------------|--------0-------|0---------------|--------|
D|0-----------2---|3-----------3---|3---------------|----------------|--------|
A|----------------|----------------|----------------|--------3---1---|3-3-3-3-|
E|----------------|----------------|----------------|----------------|--------|
                                                                 Hold 
  {Verse]
G|----------------|----------------|0-------0-------|----------------|
D|3-------3-------|0-------0-------|----------------|----------------|
A|----------------|----------------|----------------|3-----------3---|
E|----------------|----------------|----------------|----------------|

G|----------------|----------------|0-------0-------|----------------|
D|3-------3-------|0-------0-------|----------------|----------------|
A|----------------|----------------|----------------|3-------3---1---|
E|----------------|----------------|----------------|----------------|

G|----------------|----------------|----------------|----------------|
D|----------------|----------------|3-------3-------|----------------|
A|1-------1-------|1-------1-------|----------------|3-----------1---|
E|----------------|----------------|----------------|----------------|

G|0-------0-------|----------------|----------------|----------------|
D|----------------|----------------|3-------3-------|--------0---2---|
A|----------------|3-------3-------|----------------|3---------------|
E|----------------|----------------|----------------|----------------|

  {Verse]
G|----------------|----------------|0-------0-------|----------------|
D|3-------3-------|0-------0-------|----------------|----------------|
A|----------------|----------------|----------------|3-----------3---|
E|----------------|----------------|----------------|----------------|

G|----------------|----------------|0-------0-------|----------------|
D|3-------3-------|0-------0-------|----------------|----------------|
A|----------------|----------------|----------------|3-------3---1---|
E|----------------|----------------|----------------|----------------|

G|----------------|----------------|----------------|----------------|
D|----------------|----------------|3-------3-------|----------------|
A|1-------1-------|1-------1-------|----------------|3-----------1---|
E|----------------|----------------|----------------|----------------|

G|0-------0-------|----------------|----------------|----------------|
D|----------------|----------------|3-------3-------|--------0-------|
A|----------------|3-------3-------|----------------|3-----------3---|
E|----------------|----------------|----------------|----------------|

  [Verse]
G|----------------|----------------|----------------|----------------|
D|----------------|----------------|4-------4-------|4-----------0---|
A|4-------4-------|4-------4-------|----------------|----------------|
E|----------------|----------------|----------------|----------------|

G|1---------------|1---------------|----------------|----------------|
D|----------------|----------------|4-------4-------|4-------4---0---|
A|--------4-------|--------4-------|----------------|----------------|
E|----------------|----------------|----------------|----------------|

G|----------------|----------------|0-------0-------|----------------|
D|0-------0-------|0-------0-------|----------------|2-------2-------|
A|----------------|----------------|----------------|----------------|
E|----------------|----------------|----------------|----------------|

G|----------------|----------------|0-------0-------|----------------|
D|0-------0-------|----------------|----------------|--------0---2---|
A|----------------|3-------3-------|----------------|3---------------|
E|----------------|----------------|----------------|----------------|

  {Verse]
G|----------------|----------------|0-------0-------|----------------|
D|3-------3-------|0-------0-------|----------------|----------------|
A|----------------|----------------|----------------|3-----------3---|
E|----------------|----------------|----------------|----------------|

G|----------------|----------------|0-------0-------|----------------|
D|3-------3-------|0-------0-------|----------------|----------------|
A|----------------|----------------|----------------|3-------3---1---|
E|----------------|----------------|----------------|----------------|

G|----------------|----------------|----------------|----------------|
D|----------------|----------------|3-------3-------|----------------|
A|1-------1-------|1-------1-------|----------------|3-----------1---|
E|----------------|----------------|----------------|----------------|

G|0-------0-------|----------------|----------------|----------------|
D|----------------|----------------|3-------3-------|--------0-------|
A|----------------|3-------3-------|----------------|3-----------3---|
E|----------------|----------------|----------------|----------------|

  [Outro]
G|----------------|----------------|----------------|----------------|
D|----------------|----------------|3-------3-------|----------------|
A|1-------1-------|1-------1-------|----------------|3-----------1---|
E|----------------|----------------|----------------|----------------|

G|0-------0-------|----------------|----------------|----------------|
D|----------------|----------------|3-------3-------|3-------3-------|
A|----------------|3-------3-------|----------------|----------------|
E|----------------|----------------|----------------|----------------|

G|----------------|----------------|
D|----------------|----------------|
A|1---------------|----------------|
E|----------------|----------------|
Suggest correction
Give kudos to tab author, rate the tab!
1 2 3 4 5
comments
print report bad tab
guest
You may want to rate the tab now too:
select rating
Wanna post a correction for this tab? Suggest correction