Oops, an error
Loading. Please wait.
We have an official Its Too Late tab made by UG professional guitarists. Check out the tab »
×

Its Too Late bass

version 2
version 2

Whole song

  • This song was released in 1971 and reached # 1 on ... Show more

Interactive

415 views 3 this week
4 commentsread comments
1 2 3 4 5
2 more votes to show rating
add to favorites
×
Save as Personal and add changes to this tab that will be seen only by you. Learn more ›
×
You can save this tab as Personal to edit and correct it or add notes. All changes will be seen only by you. Learn more »
launch autoscroll
font size
0
reset
guitar tuner
edit
Autoscroll
slow
fast
+/-
esc
set tempo
stop
Author
About this tab version
This song was released in 1971 and reached # 1 on the Billboard Hot 100 and Adult Contemporary charts. Was this info helpful? Yes No
  [Bridge]
G|----------------|----------------|----------------|----------------|
D|--------------0-|----0---0---0---|--------------0-|----0---0---0---|
A|0---0---0---0---|----------------|0---0---0---0---|----------------|
E|----------------|----------------|----------------|----------------|

  [Verse]
G|----------------|----------------|----------------|----------------|
D|----2-----------|0-----0---------|--------2-----2-|0-----0---------|
A|0-------0---0---|--------0-----0-|0-----0---------|--------0-----0-|
E|----------------|----------------|----------------|----------------|

G|----------------|0-----0---------|----------------|----------------|
D|--------2---4---|--------0-----0-|3-----3---------|3-----3---------|
A|0-----0---------|----------------|--------3-----3-|--------3-----3-|
E|----------------|----------------|----------------|----------------|

  [Chorus]
G|----------------|----------------|----------------|----------------|
D|--------3-----3-|3-----3---------|--------3-----3-|3-----3---------|
A|1-----1---------|--------3-----3-|1-----1---------|--------3-----3-|
E|----------------|----------------|----------------|----------------|

G|----------------|----------------|----------------|----------------|
D|--------3-----3-|3-----3---------|0-----0---------|2-------2---2---|
A|1-----1---------|--------3-----3-|--------0-----0-|----2-----------|
E|----------------|----------------|----------------|----------------|

G|----------------|----------------|----------------|----------------|
D|--------------0-|----0---0---0---|--------------0-|----0---0---0---|
A|0---0---0---0---|----------------|0---0---0---0---|----------------|
E|----------------|----------------|----------------|----------------|
  
  [Verse]
G|----------------|----------------|----------------|----------------|
D|----2-----------|0-----0---------|--------2-----2-|0-----0---------|
A|0-------0---0---|--------0-----0-|0-----0---------|--------0-----0-|
E|----------------|----------------|----------------|----------------|

G|----------------|0-----0---------|----------------|----------------|
D|--------2---4---|--------0-----0-|3-----3---------|3-----3---------|
A|0-----0---------|----------------|--------3-----3-|--------3-----3-|
E|----------------|----------------|----------------|----------------|

  [Chorus]
G|----------------|----------------|----------------|----------------|
D|--------3-----3-|3-----3---------|--------3-----3-|3-----3---------|
A|1-----1---------|--------3-----3-|1-----1---------|--------3-----3-|
E|----------------|----------------|----------------|----------------|

G|----------------|----------------|----------------|----------------|
D|--------3-----3-|3-----3---------|0-----0---------|2-------2---2---|
A|1-----1---------|--------3-----3-|--------0-----0-|----2-----------|
E|----------------|----------------|----------------|----------------|

G|----------------|----------------|----------------|----------------|
D|--------3-----3-|3-----3---------|--------3-----3-|3-----3---------|
A|1-----1---------|--------3-----3-|1-----1---------|--------3-----3-|
E|----------------|----------------|----------------|----------------|

G|----------------|----------------|----------------|----------------|
D|--------3-----3-|3-----3---------|0-----0---------|2-------2---2---|
A|1-----1---------|--------3-----3-|--------0-----0-|----2-----------|
E|----------------|----------------|----------------|----------------|

  [Bridge]
G|----------------|----------------|----------------|----------------|
D|--------------0-|----0---0---0---|--------------0-|----0---0---0---|
A|0---0---0---0---|----------------|0---0---0---0---|----------------|
E|----------------|----------------|----------------|----------------|

G|----------------|----------------|----------------|----------------|
D|--------------0-|----0---0---0---|--------------0-|----0---0---0---|
A|0---0---0---0---|----------------|0---0---0---0---|----------------|
E|----------------|----------------|----------------|----------------|

G|----------------|----------------|----------------|----------------|
D|--------------0-|----0---0---0---|--------------0-|----0---0---0---|
A|0---0---0---0---|----------------|0---0---0---0---|----------------|
E|----------------|----------------|----------------|----------------|

G|----------------|----------------|----------------|----------------|
D|--------------0-|----0---0---0---|--------------0-|----0---0---0---|
A|0---0---0---0---|----------------|0---0---0---0---|----------------|
E|----------------|----------------|----------------|----------------|

G|----------------|----------------|----------------|----------------|
D|--------------0-|----0---0---0---|--------------0-|----0---0---0---|
A|0---0---0---0---|----------------|0---0---0---0---|----------------|
E|----------------|----------------|----------------|----------------|

  [Verse]
G|----------------|----------------|----------------|----------------|
D|----2-----------|0-----0---------|--------2-----2-|0-----0---------|
A|0-------0---0---|--------0-----0-|0-----0---------|--------0-----0-|
E|----------------|----------------|----------------|----------------|

G|----------------|0-----0---------|----------------|----------------|
D|--------2---4---|--------0-----0-|3-----3---------|3-----3---------|
A|0-----0---------|----------------|--------3-----3-|--------3-----3-|
E|----------------|----------------|----------------|----------------|

  [Chorus]
G|----------------|----------------|----------------|----------------|
D|--------3-----3-|3-----3---------|--------3-----3-|3-----3---------|
A|1-----1---------|--------3-----3-|1-----1---------|--------3-----3-|
E|----------------|----------------|----------------|----------------|

G|----------------|----------------|----------------|----------------|
D|--------3-----3-|3-----3---------|0-----0---------|2-------2---2---|
A|1-----1---------|--------3-----3-|--------0-----0-|----2-----------|
E|----------------|----------------|----------------|----------------|

G|----------------|----------------|----------------|----------------|
D|--------3-----3-|3-----3---------|--------3-----3-|3-----3---------|
A|1-----1---------|--------3-----3-|1-----1---------|--------3-----3-|
E|----------------|----------------|----------------|----------------|

G|----------------|----------------|----------------|----------------|
D|--------3-----3-|3-----3---------|0-----0---------|2-------2---2---|
A|1-----1---------|--------3-----3-|--------0-----0-|----2-----------|
E|----------------|----------------|----------------|----------------|

  [Ending]
G|--------0-----0-|----------------|--------0-----0-|----------------|
D|----------------|3-----3---------|----------------|----------------|
A|3-----3---------|--------3-----2-|3-----3---------|3-------3---3---|
E|----------------|----------------|----------------|----3-----------|

G|--------0-----0-|----0-----------|
D|----------------|----------------|
A|3-----3---------|3-------3-------|
E|----------------|----------------|

  Should work with the 4:04 version.

            
            
Suggest correction
Creating personal tab
Creating personal tab
You can edit any tab online and save it as your Personal.

You can edit, replace or remove any tab part or add personal notes – all changes will be seen only by you.

Personal tabs can be accessed anytime from any device, even offline.
Learn more »
Give kudos to tab author, rate the tab!
1 2 3 4 5
comments
print report bad tab
4 comments total. Showing first comments.
0 reply
nmtovar 10 Aug 01, 2016 07:43 PM

Tab does not reflect the finger pattern for the Tapestry version of this song and will need to be corrected if it is going to used to teach the bass line for this song.

0 reply
RagnaarMN 2,951 Aug 03, 2016 11:45 AM

Can you suggest something for the bridge, verse or chorus?

0 reply
RagnaarMN 2,951 Dec 05, 2016 10:39 PM

You were correct nmtovar. It has been corrected. Thank you.

guest
You may want to rate the tab now too:
select rating
Wanna post a correction for this tab? Suggest correction