Oops, an error
Loading. Please wait.

Jazzman Bass Tab

115 views 3 this week
no commentswrite comment
1 2 3 4 5
3 more votes to show rating
add to favorites
launch autoscroll
font size
0
reset
guitar tuner
Autoscroll
slow
fast
+/-
esc
set tempo
stop
Help us to improve Ultimate-Guitar.com Take our survey!
×
Author
Difficulty
novice
About this tab version
Carole King and David Palmer wrote this ode to the Jazzman. Was this info helpful? Yes No
  Lift      you    lift          a  bove    old rou  tine 
G|----------------|----------------|----------------|0---------------|
D|----------------|----------------|1-----------1---|----------------|
A|1-------0-------|1---------------|----------------|----------------|
E|----------------|----------------|----------------|----------------|

G|1-----------1---|----------------|----------------|----------------|
D|----------------|----------------|----------------|----------------|
A|----------------|1-----------1---|----------------|----------------|
E|----------------|----------------|3-------3-------|3---3---3---3---|

G|----------------|----------------|----------------|----------------|
D|----------------|----------------|----------------|----------------|
A|3---3---3---3-3-|--------3-------|3---3---3---3-3-|------------3---|
E|----------------|----------------|----------------|----------------|

G|----------------|----------------|----------------|----------------|
D|----------------|----------------|----------------|----------------|
A|3---3---3---3-3-|--------3-------|3---3---3---3-3-|------------3---|
E|----------------|----------------|----------------|----------------|

  [Verse]
G|----------------|----------------|----------------|----------------|
D|----------------|----------------|----------------|3---------------|
A|3-----------0---|3-----------3---|3-----------3---|------------0---|
E|----------------|----------------|----------------|----------------|

G|----------------|----------------|----------------|----------------|
D|----------------|----------------|----------------|----------------|
A|1-----------1---|3-----------3---|1-----------1---|0---------------|
E|----------------|----------------|----------------|----------------|

G|----------------|
D|----------------|
A|--------0---0---|
E|----------------|

G|----------------|----------------|----------------|----------------|
D|----------------|----------------|----------------|3---------------|
A|3-----------0---|3-----------3---|3-----------0---|------------0---|
E|----------------|----------------|----------------|----------------|

G|----------------|----------------|----------------|----------------|
D|----------------|----------------|----------------|0---------------|
A|1-----------1---|3-----------3---|1-----------1---|----------------|
E|----------------|----------------|----------------|----------------|

G|----------------|
D|----------------|
A|----------------|
E|--------3---3---|

  [Chorus]
G|----------------|----------------|----------------|----------------|
D|----------------|----------------|----------------|----------------|
A|3-----------3---|3---------------|--------3-------|3---------------|
E|----------------|------------2---|3---------------|------------2---|

G|----------------|----------------|----------------|----------------|
D|----------------|----------------|----------------|3-------3-------|
A|3-----------3---|3-----------3---|1-----------3---|----------------|
E|----------------|----------------|----------------|----------------|

G|1-------1-------|----------------|----------------|----------------|
D|----------------|----------------|----------------|----------------|
A|----------------|1-------1-------|----------------|----------------|
E|----------------|----------------|3-------3-------|3---3---3---3---|

  [Sax Solo]
G|----------------|----------------|----------------|----------------|
D|----------------|----------------|----------------|----------------|
A|3---3---3---3-3-|--------3-------|3---3---3---3-3-|------------3---|
E|----------------|----------------|----------------|----------------|

G|----------------|----------------|----------------|----------------|
D|----------------|----------------|----------------|----------------|
A|3---3---3---3-3-|--------3-------|3---3---3---3-3-|------------3---|
E|----------------|----------------|----------------|----------------|

  [Verse]
G|----------------|----------------|----------------|----------------|
D|----------------|----------------|----------------|3---------------|
A|3-----------0---|3-----------3---|3-----------3---|------------0---|
E|----------------|----------------|----------------|----------------|

G|----------------|----------------|----------------|----------------|
D|----------------|----------------|----------------|----------------|
A|1-----------1---|3-----------3---|1-----------1---|0---------------|
E|----------------|----------------|----------------|----------------|

G|----------------|
D|----------------|
A|--------0---0---|
E|----------------|

G|----------------|----------------|----------------|----------------|
D|----------------|----------------|----------------|3---------------|
A|3-----------0---|3-----------3---|3-----------0---|------------0---|
E|----------------|----------------|----------------|----------------|

G|----------------|----------------|----------------|----------------|
D|----------------|----------------|----------------|0---------------|
A|1-----------1---|3-----------3---|1-----------1---|----------------|
E|----------------|----------------|----------------|----------------|

G|----------------|
D|----------------|
A|----------------|
E|--------3---3---|

  [Chorus]
G|----------------|----------------|----------------|----------------|
D|----------------|----------------|----------------|----------------|
A|3-----------3---|3---------------|--------3-------|3---------------|
E|----------------|------------2---|3---------------|------------2---|

G|----------------|----------------|----------------|----------------|
D|----------------|----------------|----------------|3-------3-------|
A|3-----------3---|3-----------3---|1-----------3---|----------------|
E|----------------|----------------|----------------|----------------|

G|----------------|----------------|--------0-------|0-----------0---|
D|----------------|--------3-------|1---------------|----------------|
A|--------0-------|1---------------|----------------|----------------|
E|3---------------|----------------|----------------|----------------|

G|1-----------1---|----------------|----------------|----------------|
D|----------------|----------------|----------------|----------------|
A|----------------|1-------1-------|----------------|----------------|
E|----------------|----------------|3-------3-------|3---3---3---3---|

  [Outro]
G|----------------|----------------|----------------|----------------|
D|----------------|----------------|----------------|----------------|
A|3---3---3---3-3-|--------3-------|3---3---3---3-3-|------------3---|
E|----------------|----------------|----------------|----------------|

  Keep repeating the above 4 bars 
Suggest correction
Give kudos to tab author, rate the tab!
1 2 3 4 5
comments
print report bad tab
guest
You may want to rate the tab now too:
select rating
Wanna post a correction for this tab? Suggest correction