Oops, an error
Loading. Please wait.

Nightingale Bass

13 views 1 this week
no commentswrite comment
1 2 3 4 5
3 more votes to show rating
add to favorites
launch autoscroll
font size
0
reset
guitar tuner
×
Best way to learn
"Nightingale"
Autoscroll
slow
fast
+/-
esc
set tempo
stop
Author
Difficulty
About this tab version
The song was written by Carole King and David Palmer. Was this info helpful? Yes No
  [Intro]
G|----------------|----------------|----------------|----------------|
D|----------------|--------------0-|----------------|----------------|
A|----------------|----------------|----------------|----------------|
E|3---------------|----------------|----------------|--------------3-|

G|----------------|----------------|----------------|----------------|
D|----------------|--------------0-|----------------|--------0---0---|
A|----------------|----------------|----------------|----------------|
E|----------------|----------------|----------------|----------------|

  {Verse]
G|----------------|----------------|----------------|----------------|
D|----------------|--------------0-|--------------0-|----------------|
A|----------------|----------------|----------------|------------0---|
E|3-------------3-|----------------|----------------|--------------3-|

G|----------------|----------------|----------------|----------------|
D|----------------|--------------0-|--------------0-|----------------|
A|----------------|----------------|----------------|------------0---|
E|--------------3-|----------------|----------------|--------------3-|

G|----------------|----------------|----------------|----------------|
D|----------------|--------------0-|--------------0-|----------------|
A|----------------|----------------|----------------|------------0---|
E|--------------3-|----------------|----------------|--------------3-|

G|----------------|----------------|----------------|----------------|
D|----------------|--------------0-|--------------0-|----------------|
A|----------------|----------------|----------------|------------0---|
E|--------------3-|----------------|----------------|----------------|

G|----------------|----------------|----------------|----------------|
D|----------------|----------------|----------------|----------------|
A|2------2-2----2-|2-----2-2-----2-|0-----0-0-----0-|0-----0-0-----0-|
E|----------------|----------------|----------------|----------------|

                                                             Night
G|----------------|----------------|----------------|----------------|
D|----------------|----------------|----------------|----------------|
A|----------------|----------------|------------0---|------------0---|
E|3------3-3----3-|1-----1-1-----1-|0-----0-0-------|----------------|

  [Chorus]                                                   Night
G|----------------|----------------|----------------|----------------|
D|0-------------0-|----------------|----------------|--------------0-|
A|----------------|----------------|----------------|------------0---|
E|----------------|--------------3-|--------------3-|----------------|

G|----------------|----------------|----------------|----------------|
D|--------------0-|----------------|----------------|----------------|
A|----------------|----------------|----------------|------------0---|
E|----------------|--------------3-|--------------3-|----------------|

G|----------------|----------------|----------------|----------------|
D|----------------|------0---------|----------------|------0-3-------|
A|----------------|2-------0---0---|------------2---|2-------------2-|
E|0-----3-0---0---|----------------|0-----3-0-------|----------------|

                                                             Night
G|----------------|----------------|----------------|----------------|
D|----------------|----------------|----------------|----------------|
A|------2-------2-|------2-2-----2-|0-------------0-|------0-0---0---|
E|0-------0-------|----------------|----------------|----------------|

                                                             Night 
G|----------------|----------------|----------------|----------------|
D|0-------0-----0-|--------0-------|----------------|--------------0-|
A|----------------|----------------|----------------|----------------|
E|----------------|--------------3-|--------3-----3-|--------3-------|

G|----------------|----------------|----------------|----------------|
D|--------0-----0-|--------0-------|----------------|----------------|
A|----------------|----------------|----------------|----------------|
E|----------------|--------------3-|--------3-----3-|--------3-----3-|

  {Verse]
G|----------------|----------------|----------------|----------------|
D|----------------|--------------0-|--------------0-|----------------|
A|----------------|----------------|----------------|------------0---|
E|--------------3-|----------------|----------------|--------------3-|

G|----------------|----------------|----------------|----------------|
D|----------------|--------------0-|--------------0-|----------------|
A|----------------|----------------|----------------|------------0---|
E|--------------3-|----------------|----------------|--------------3-|

G|----------------|----------------|----------------|----------------|
D|----------------|--------------0-|--------------0-|----------------|
A|----------------|----------------|----------------|------------0---|
E|--------------3-|----------------|----------------|--------------3-|

G|----------------|----------------|----------------|----------------|
D|----------------|--------------0-|--------------0-|----------------|
A|----------------|----------------|----------------|------------0---|
E|--------------3-|----------------|----------------|----------------|

G|----------------|----------------|----------------|----------------|
D|----------------|----------------|----------------|----------------|
A|2------2-2----2-|2-----2-2-----2-|0-----0-0-----0-|0-----0-0-----0-|
E|----------------|----------------|----------------|----------------|

                                                             Night
G|----------------|----------------|----------------|----------------|
D|----------------|----------------|----------------|----------------|
A|----------------|----------------|------------0---|------------0---|
E|3------3-3----3-|1-----1-1-----1-|0-----0-0-------|----------------|

  [Chorus]                                                   Night
G|----------------|----------------|----------------|----------------|
D|0-------------0-|----------------|----------------|--------------0-|
A|----------------|----------------|----------------|------------0---|
E|----------------|--------------3-|--------------3-|----------------|

G|----------------|----------------|----------------|----------------|
D|--------------0-|----------------|----------------|----------------|
A|----------------|----------------|----------------|------------0---|
E|----------------|--------------3-|--------------3-|----------------|

G|----------------|----------------|----------------|----------------|
D|----------------|------0---------|----------------|------0-3-------|
A|----------------|2-------0---0---|------------2---|2-------------2-|
E|0-----3-0---0---|----------------|0-----3-0-------|----------------|

                                                             Night
G|----------------|----------------|----------------|----------------|
D|----------------|----------------|----------------|----------------|
A|------2-------2-|------2-2-----2-|0-------------0-|------0-0---0---|
E|0-------0-------|----------------|----------------|----------------|

                                                             Night 
G|----------------|----------------|----------------|----------------|
D|0-------0-----0-|--------0-------|----------------|--------------0-|
A|----------------|----------------|----------------|----------------|
E|----------------|--------------3-|--------3-----3-|--------3-------|

G|----------------|----------------|----------------|----------------|
D|--------0-----0-|--------0-------|----------------|--------------0-|
A|----------------|----------------|----------------|----------------|
E|----------------|--------------3-|--------3-----3-|--------3-------|

  [Outro]                                                    Might
G|----------------|----------------|----------------|----------------|
D|--------0-----0-|--------0-------|----------------|--------------0-|
A|----------------|----------------|----------------|----------------|
E|----------------|--------------3-|--------3-----3-|--------3-------|

  Keep repeating the above 4 bars
Suggest correction
Give kudos to tab author, rate the tab!
1 2 3 4 5
comments
print report bad tab
guest
You may want to rate the tab now too:
select rating
Wanna post a correction for this tab? Suggest correction