Oops, an error
Loading. Please wait.

Nightingale Bass Tab

10 views 1 this week
no commentswrite comment
1 2 3 4 5
3 more votes to show rating
add to favorites
launch autoscroll
font size
0
reset
guitar tuner
Autoscroll
slow
fast
+/-
esc
set tempo
stop
Help us to improve Ultimate-Guitar.com Take our survey!
×
Author
Difficulty
novice
About this tab version
The song was written by Carole King and David Palmer. Was this info helpful? Yes No
  [Intro]
G|----------------|----------------|----------------|----------------|
D|----------------|----------------|0---------------|----------------|
A|----------------|----------------|----------------|----------------|
E|3---------------|----------------|----------------|----------------|

G|----------------|----------------|----------------|----------------|
D|----------------|----------------|0---------------|----------------|
A|----------------|----------------|----------------|------------2---|
E|3---------------|----------------|----------------|----------------|

  {Verse]
G|----------------|----------------|----------------|----------------|
D|----------------|----------------|0---------------|0---------------|
A|----------------|----------------|----------------|------------2---|
E|3---------------|3---------------|----------------|----------------|

G|----------------|----------------|----------------|----------------|
D|----------------|----------------|0---------------|0---------------|
A|----------------|----------------|----------------|------------2---|
E|3---------------|3---------------|----------------|----------------|

G|----------------|----------------|----------------|----------------|
D|----------------|----------------|0---------------|0---------------|
A|----------------|----------------|----------------|------------2---|
E|3---------------|3---------------|----------------|----------------|

G|----------------|----------------|----------------|----------------|
D|----------------|----------------|0---------------|0---------------|
A|----------------|----------------|----------------|------------2---|
E|3---------------|3---------------|----------------|----------------|

G|----------------|----------------|----------------|----------------|
D|----------------|----------------|----------------|0---------------|
A|0---------------|0---------------|0---------------|------------2---|
E|----------------|----------------|----------------|----------------|

                                                                 Night
G|----------------|----------------|----------------|----------------|
D|----------------|----------------|----------------|----------------|
A|----------------|----------------|----------------|------------2---|
E|3---------------|2---------------|0---------------|0---------------|

  [Chorus]                                                       Night
G|----------------|----------------|----------------|----------------|
D|0---------------|0---------------|0---------------|0---------------|
A|----------------|----------------|----------------|------------2---|
E|----------------|----------------|----------------|----------------|

G|----------------|----------------|----------------|----------------|
D|0---------------|0---------------|0---------------|----------------|
A|----------------|----------------|----------------|----------------|
E|----------------|----------------|--------3-------|3-----------2---|

  [Verse]
G|----------------|----------------|----------------|----------------|
D|----------------|----------------|----------------|----------------|
A|----------------|2---------------|----------------|2---------------|
E|0---------------|----------------|0---------------|--------0-------|

                                                                 Night
G|----------------|----------------|----------------|----------------|
D|----------------|----------------|----------------|----------------|
A|----------------|2---------------|----------------|------------2---|
E|0---------------|----------------|3---------------|3---------------|

                                                                 Night 
G|----------------|----------------|----------------|----------------|
D|0---------------|0---------------|0---------------|----------------|
A|----------------|----------------|----------------|------------2---|
E|----------------|----------------|----------------|3---------------|

G|----------------|----------------|----------------|----------------|
D|0---------------|0---------------|0---------------|0-----------0---|
A|----------------|----------------|----------------|----------------|
E|----------------|----------------|----------------|----------------|

G|----------------|----------------|----------------|----------------|
D|0---------------|0---------------|0---------------|0---------------|
A|----------------|----------------|----------------|------------2---|
E|--------3-------|----------------|----------------|----------------|

G|----------------|----------------|----------------|----------------|
D|----------------|0---------------|0---------------|0-----------0---|
A|----------------|----------------|----------------|----------------|
E|3---------------|----------------|----------------|----------------|

G|----------------|----------------|----------------|----------------|
D|0---------------|0---------------|0---------------|0-----------0---|
A|----------------|----------------|----------------|----------------|
E|----------------|--------3-------|----------------|----------------|

G|----------------|----------------|----------------|----------------|
D|0---------------|----------------|----------------|0---------------|
A|--------0-------|0---------------|0---------------|------------2---|
E|----------------|----------------|----------------|----------------|

G|----------------|----------------|----------------|----------------|
D|----------------|----------------|----------------|----------------|
A|----------------|----------------|----------------|------------2---|
E|3---------------|2---------------|0---------------|0---------------|
 
                                                                 Night
G|----------------|----------------|----------------|----------------|
D|0---------------|0---------------|0---------------|0---------------|
A|----------------|----------------|----------------|------------2---|
E|----------------|----------------|----------------|----------------|

  [Chorus]                                                       Night
G|----------------|----------------|----------------|----------------|
D|----------------|----------------|----------------|----------------|
A|----------------|2---------------|----------------|2-----------2---|
E|0---------------|----------------|0---------------|----------------|

G|----------------|----------------|----------------|----------------|
D|----------------|----------------|--------0-------|0-----------0---|
A|----------------|2---------------|0---------------|----------------|
E|0---------------|----------------|----------------|----------------|

  [Verse]
G|----------------|----------------|----------------|----------------|
D|0---------------|0---------------|0---------------|0-----------0---|
A|----------------|----------------|----------------|----------------|
E|----------------|----------------|----------------|----------------|

                                                                 Night
G|----------------|----------------|----------------|----------------|
D|0---------------|0---------------|0---------------|0---------------|
A|----------------|----------------|----------------|------------2---|
E|----------------|----------------|----------------|----------------|

  [Outro]                                                        Might
G|----------------|----------------|----------------|----------------|
D|0---------------|0---------------|0---------------|----------------|
A|----------------|----------------|----------------|------------2---|
E|----------------|----------------|----------------|3---------------|

                                                                 Night
G|----------------|----------------|----------------|----------------|
D|0---------------|0---------------|0---------------|0---------------|
A|----------------|----------------|----------------|------------2---|
E|----------------|----------------|----------------|----------------|

  Keep repeating the above 4 bars.
Suggest correction
Give kudos to tab author, rate the tab!
1 2 3 4 5
comments
print report bad tab
guest
You may want to rate the tab now too:
select rating
Wanna post a correction for this tab? Suggest correction