Oops, an error
Loading. Please wait.

Now And Forever Bass Tab

13 views 1 this week
no commentswrite comment
1 2 3 4 5
3 more votes to show rating
add to favorites
launch autoscroll
font size
0
reset
guitar tuner
Autoscroll
slow
fast
+/-
esc
set tempo
stop
Help us to improve Ultimate-Guitar.com Take our survey!
×
Author
Difficulty
novice
About this tab version
This song was written and recorded for the major motion picture A League of Their Own. Was this info helpful? Yes No
  [Intro]
G|----------------|----------------|----------------|----------------|
D|----------------|----------------|----------------|----------------|
A|4---------------|----------------|----------------|------------1---|
E|----------------|4-------4-------|2---------------|2---------------|

  [Verse]
G|----------------|----------------|----------------|----------------|
D|----------------|----------------|----------------|----------------|
A|4-------4-------|4-------4-------|--------4-------|4-----------4---|
E|----------------|----------------|2---------------|----------------|

G|----------------|----------------|----------------|----------------|
D|----------------|----------------|----------------|----------------|
A|4-------4-------|----------------|----------------|4-----------1---|
E|----------------|4-------4-------|2-------2-------|----------------|

G|----------------|----------------|----------------|----------------|
D|----------------|----------------|1---------------|----------------|
A|----------------|1-------1-------|----------------|1---------------|
E|1-------1-------|----------------|--------1-------|------------4---|

G|----------------|----------------|----------------|----------------|
D|----------------|----------------|1-------1-------|----------------|
A|----------------|4-------4-------|----------------|------------1---|
E|2-------2-------|----------------|----------------|4---------------|

  [Verse]
G|----------------|----------------|----------------|----------------|
D|----------------|----------------|----------------|----------------|
A|4-------4-------|----------------|4-------4-------|1---------------|
E|----------------|4-------4-------|----------------|------------4---|

G|----------------|----------------|----------------|----------------|
D|----------------|1-------3-------|----------------|----------------|
A|----------------|----------------|1---------------|--------4-------|
E|1-------1-------|----------------|--------4-------|2---------------|

G|----------------|----------------|----------------|----------------|
D|1-------1-------|----------------|----------------|----------------|
A|----------------|----------------|4-------4-------|--------4-------|
E|----------------|4-------4-------|----------------|4---------------|

  [Bridge]
G|----------------|----------------|----------------|----------------|
D|----------------|----------------|1-------1-------|----------------|
A|----------------|4-------4-------|----------------|4-------4-------|
E|2-------2-------|----------------|----------------|----------------|

G|----------------|----------------|----------------|----------------|
D|----------------|----------------|1-------1-------|----------------|
A|----------------|1-------1-------|----------------|------------1---|
E|1-------1-------|----------------|----------------|4---------------|

  [Verse]
G|----------------|----------------|----------------|----------------|
D|----------------|----------------|----------------|------------1---|
A|4-------4-------|4-------4-------|4-------4-------|1---------------|
E|----------------|----------------|----------------|----------------|

G|----------------|----------------|----------------|----------------|
D|3-------3-------|1-----------3---|----------------|----------------|
A|----------------|--------3-------|1---------------|--------4-------|
E|----------------|----------------|--------4-------|2---------------|

G|----------------|----------------|----------------|----------------|
D|1-------1-------|----------------|----------------|----------------|
A|----------------|----------------|1-------4-------|--------4-------|
E|----------------|4-----------1---|----------------|2---------------|

G|----------------|----------------|----------------|----------------|
D|1-------1-------|----------------|----------------|----------------|
A|----------------|----------------|1-------1-------|4-----------1---|
E|----------------|4-----------1---|----------------|----------------|

G|----------------|----------------|
D|----------------|----------------|
A|----------------|----------------|
E|2-------2-------|2-------2-------|

  [Outro]
G|----------------|----------------|----------------|----------------|
D|----------------|----------------|----------------|----------------|
A|4-------4-------|----------------|----------------|----------------|
E|----------------|4-------4-------|2-------2-------|2-------2-------|

G|----------------|
D|----------------|
A|4---------------|
E|----------------|

Suggest correction
Give kudos to tab author, rate the tab!
1 2 3 4 5
comments
print report bad tab
guest
You may want to rate the tab now too:
select rating
Wanna post a correction for this tab? Suggest correction