Oops, an error
Loading. Please wait.

One Fine Day Bass Tab

40 views 3 this week
no commentswrite comment
1 2 3 4 5
3 more votes to show rating
add to favorites
launch autoscroll
font size
0
reset
guitar tuner
Autoscroll
slow
fast
+/-
esc
set tempo
stop
Help us to improve Ultimate-Guitar.com Take our survey!
×
Author
Difficulty
novice
About this tab version
This song was written by Gerry Goffin and Carole King. Was this info helpful? Yes No
  [Intro]
G|0---------------|----------------|----------------|----------------|
D|----------------|2---------------|----------------|0---------------|
A|----------------|----------------|3---------------|----------------|
E|----------------|----------------|----------------|----------------|

G|0---------------|----------------|----------------|----------------|
D|----------------|2---------------|----------------|0---------------|
A|----------------|----------------|3---------------|--------0-------|
E|----------------|----------------|----------------|----------------|

 [Verse]  
      One   fine   day                  you   at     me  
G|0---------------|0-------0-------|----------------|----------------|
D|--------0-------|----------------|0---------------|0---------------|
A|----------------|----------------|--------0-------|--------0-------|
E|----------------|----------------|----------------|----------------|

G|----------------|----------------|--------0-------|----------------|
D|----------------|2---------------|----------------|--------1-------|
A|3-------2-------|----------------|3---------------|3---------------|
E|----------------|--------0-------|----------------|----------------|

G|0-------0-------|----------------|----------------|----------------|
D|----------------|2-------2-------|----------------|0-----------0---|
A|----------------|----------------|3-------3-------|--------0-------|
E|----------------|----------------|----------------|----------------|

G|0---------------|----------------|----------------|----------------|
D|----------------|2---------------|----------------|0---------------|
A|----------------|----------------|3---------------|--------0-------|
E|----------------|----------------|----------------|----------------|

  [Verse]
G|0---------------|0-------0-------|----------------|----------------|
D|--------0-------|----------------|0---------------|0---------------|
A|----------------|----------------|--------0-------|--------0-------|
E|----------------|----------------|----------------|----------------|

G|----------------|----------------|--------0-------|----------------|
D|----------------|2---------------|----------------|--------1-------|
A|3-------2-------|----------------|3---------------|3---------------|
E|----------------|--------0-------|----------------|----------------|

G|0-------0-------|----------------|----------------|----------------|
D|----------------|2-------2-------|----------------|0-----------0---|
A|----------------|----------------|3-------3-------|--------0-------|
E|----------------|----------------|----------------|----------------|

G|----------------|----------------|----------------|----------------|
D|----------------|----------------|----------------|----------------|
A|----------------|3-------3-------|----------------|----------------|
E|3-------3-------|----------------|3-------3-------|3-------3-------|

  [Bridge]
G|----------------|----------------|----------------|----------------|
D|0---------------|----------------|0---------------|--------0-------|
A|--------0-------|----------------|--------0-------|----------------|
E|----------------|3-------3-------|----------------|3---------------|

G|----------------|----------------|--------0-------|----------------|
D|----------------|----------------|----------------|----------------|
A|3---------------|3---------------|3---------------|3---------------|
E|--------3-------|--------3-------|----------------|--------3-------|

G|----------------|----------------|----------------|----------------|
D|----------------|----------------|----------------|----------------|
A|--------2-------|0-------0-------|--------2-------|0-------0-------|
E|0---------------|----------------|0---------------|----------------|

G|----------------|----------------|----------------|----------------|
D|0---------------|0---0---0---0---|0---------------|0-----------0---|
A|--------0-------|----------------|--------0-------|--------0-------|
E|----------------|----------------|----------------|----------------|

  [Verse]
G|0---------------|0-------0-------|----------------|----------------|
D|--------0-------|----------------|0---------------|0---------------|
A|----------------|----------------|--------0-------|--------0-------|
E|----------------|----------------|----------------|----------------|

G|----------------|----------------|--------0-------|----------------|
D|----------------|2---2---2---2---|----------------|--------1-------|
A|--------2-------|----------------|3---------------|3---------------|
E|0---------------|----------------|----------------|----------------|

G|0-------0-------|----------------|----------------|----------------|
D|----------------|2-------2-------|----------------|0-----------0---|
A|----------------|----------------|3-------3-------|--------0-------|
E|----------------|----------------|----------------|----------------|

G|0-------0-------|----------------|----------------|----------------|
D|----------------|2-------2-------|----------------|0-----------0---|
A|----------------|----------------|3-------3-------|--------0-------|
E|----------------|----------------|----------------|----------------|

G|0-------0-------|----------------|----------------|----------------|
D|----------------|2-------2-------|----------------|0-----------0---|
A|----------------|----------------|3-------3-------|--------0-------|
E|----------------|----------------|----------------|----------------|

  [Outro]
G|0---------------|----------------|----------------|----------------|
D|----------------|2---------------|----------------|0---------------|
A|----------------|----------------|3---------------|----------------|
E|----------------|----------------|----------------|----------------|

G|0---------------|----------------|----------------|----------------|
D|----------------|2---------------|----------------|0---------------|
A|----------------|----------------|3---------------|----------------|
E|----------------|----------------|----------------|----------------|

G|0-------0-------|----------------|----------------|----------------|
D|----------------|2-------2-------|----------------|0-----------0---|
A|----------------|----------------|3-------3-------|--------0-------|
E|----------------|----------------|----------------|----------------|

Keep repeating the above 4 bars.

This is a simplified version. 
Suggest correction
Give kudos to tab author, rate the tab!
1 2 3 4 5
comments
print report bad tab
guest
You may want to rate the tab now too:
select rating
Wanna post a correction for this tab? Suggest correction