Oops, an error
Loading. Please wait.

One Fine Day chords

version 2
version 2

Whole song

  • Tab and chords based off the studio recorded versi... Show more
133 views 6 this week
1 commentread comment
1 2 3 4 5
x 4
add to favorites
×
Save as Personal and add changes to this tab that will be seen only by you. Learn more ›
×
You can save this tab as Personal to edit and correct it or add notes. All changes will be seen only by you. Learn more »
launch autoscroll
font size
0
reset
transpose
0
reset
display chords
guitar tuner
edit
Autoscroll
slow
fast
+/-
esc
set tempo
stop
Strumming
There is no strumming pattern for this song yet. and get +5 IQ
Tab by schoben (ultimate-guitar.com)

[Intro]
   F                       Bb             C
e|---1---1---1---1---4---|--------------------|
B|---1---1---1---1-------|----3--3--3--3--1---|
G|---2---2---2---2-------|----3--3--3--3--0---|
D|-----------------------|----------------3---|
A|-----------------------|--1-----------------|
E|-1---------------------|--------------------|2x

[Verse 1]
F             C
One fine day, you'll look at me
Dm                              Bb
And you will know our love was, meant to be

[Chorus]
F        C    Bb           C
One fine day, you're gonna want me for your girl

   F                       Bb             C
e|---1---1---1---1---4---|--------------------|
B|---1---1---1---1-------|----3--3--3--3--1---|
G|---2---2---2---2-------|----3--3--3--3--0---|
D|-----------------------|----------------3---|
A|-----------------------|--1-----------------|
E|-1---------------------|--------------------|

[Verse 2]
F                    C
The arms I long for, will open wide
Dm                              Bb
And you'll be proud to have me, walking right by your side

[Chorus]
F        C    Bb           C
One fine day, you're gonna want me for your girl

   F                       Bb             C
e|---1---1---1---1---4---|--------------------|
B|---1---1---1---1-------|----3--3--3--3--1---|
G|---2---2---2---2-------|----3--3--3--3--0---|
D|-----------------------|----------------3---|
A|-----------------------|--1-----------------|
E|-1---------------------|--------------------|

[Bridge]
Eb       F               Eb      F
Though I know you're the kind of boy
Bb       Dm       Bb         Dm
Who only wants to run around
Dm        G            Dm       G
I'll keep waiting, and, someday darling
C              Bb          C
You'll come to me when you want to settle down, Oh!

[Verse 3]
F             C
One fine day, we'll meet once more
Dm                                Bb
And then you'll want the love you threw away before

[Chorus]
F        C    Bb           C
One fine day, you're gonna want me for your girl
F        C    Bb           C
One fine day, oh           oh
F        C    Bb           C
One fine day, you're gonna want me for your girl

   F                       Bb             C
e|---1---1---1---1---4---|--------------------|
B|---1---1---1---1-------|----3--3--3--3--1---|
G|---2---2---2---2-------|----3--3--3--3--0---|
D|-----------------------|----------------3---|
A|-----------------------|--1-----------------|
E|-1---------------------|--------------------|2x

[Solo]
F Bb C
F Bb C
F Bb C
F Bb C

            
            
Suggest correction
Creating personal tab
Creating personal tab
You can edit any tab online and save it as your Personal.

You can edit, replace or remove any tab part or add personal notes – all changes will be seen only by you.

Personal tabs can be accessed anytime from any device, even offline.
Learn more »
comments
print report bad tab
1 comment total.
+1 reply
Mats Fagergren 2,148 Jun 25, 2017 02:09 PM

Great song..Thanks for the tabs!!

guest
You may want to rate the tab now too:
select rating
Wanna post a correction for this tab? Suggest correction