Oops, an error
Loading. Please wait.

One To One Bass Tab

4 views 1 this week
no commentswrite comment
1 2 3 4 5
3 more votes to show rating
add to favorites
launch autoscroll
font size
0
reset
guitar tuner
Autoscroll
slow
fast
+/-
esc
set tempo
stop
Help us to improve Ultimate-Guitar.com Take our survey!
×
Author
Difficulty
novice
About this tab version
One to One peaked at #45 on Billboard's Hot 100 in 1982. Was this info helpful? Yes No
  [Intro]
G|----------------|----------------|----------------|----------------|
D|----------------|----------------|4-------4-------|4---------------|
A|----------------|----------------|----------------|--------2-------|
E|3-------0-------|3-------0-------|----------------|----------------|

G|----------------|----------------|----------------|----------------|
D|----------------|4---------------|----------------|----------------|
A|----------------|--------2-------|----------------|0-------------0-|
E|3-------0-------|----------------|0-------0-------|----------------|

  [Verse]
G|----------------|----------------|----------------|----------------|
D|0-------0-------|0-------0---0---|----------------|----------------|
A|----------------|----------------|2-------2-------|2-------2---0---|
E|----------------|----------------|----------------|----------------|

G|----------------|----------------|----------------|----------------|
D|----------------|----------------|0---------------|----------------|
A|----------------|----------------|--------0-------|--------2-----0-|
E|3-------3-------|3-------3-------|----------------|2---------------|
  
  [Chorus]
G|----------------|----------------|----------------|----------------|
D|----------------|----------------|----------------|----------------|
A|----------------|----------------|----------------|2-------2-----0-|
E|3-------3-------|3-------3-------|2-------2-------|----------------|

G|----------------|----------------|----------------|----------------|
D|----------------|----------------|----------------|----------------|
A|----------------|--------2-------|----------------|----------------|
E|0-------0-------|2---------------|2-------2-------|3-------3-------|

G|----------------|----------------|----------------|----------------|
D|0-------0-------|0-------0---0---|----------------|----------------|
A|----------------|----------------|2-------2-----2-|2-------2---3---|
E|----------------|----------------|----------------|----------------|

  [Verse]
G|----------------|----------------|----------------|----------------|
D|0-------0-------|0-------0---0---|----------------|----------------|
A|----------------|----------------|2-------2-------|2-------2---0---|
E|----------------|----------------|----------------|----------------|

G|----------------|----------------|----------------|----------------|
D|----------------|----------------|0---------------|----------------|
A|----------------|----------------|--------0-------|--------2-----0-|
E|3-------3-------|3-------3-------|----------------|2---------------|
  
  [Chorus]
G|----------------|----------------|----------------|----------------|
D|----------------|----------------|----------------|----------------|
A|----------------|----------------|----------------|2-------2-----0-|
E|3-------3-------|3-------3-------|2-------2-------|----------------|

G|----------------|----------------|----------------|----------------|
D|----------------|----------------|----------------|----------------|
A|----------------|--------2-------|----------------|----------------|
E|0-------0-------|2---------------|2-------2-------|3-------3-------|

  [Break]
G|----------------|----------------|----------------|----------------|
D|0---------------|0-----------0-0-|----------------|----------------|
A|----------------|----------------|3---------------|3-----------3-3-|
E|----------------|----------------|----------------|----------------|

G|----------------|----------------|----------------|----------------|
D|----------------|----------------|----------------|----------------|
A|3-------2-------|2-------2-------|3-------3-------|3-------------0-|
E|----------------|----------------|----------------|----------------|

  [Chorus]
G|----------------|----------------|----------------|----------------|
D|----------------|----------------|----------------|----------------|
A|----------------|----------------|----------------|2-------2-----0-|
E|3-------3-------|3-------3-------|2-------2-------|----------------|

G|----------------|----------------|----------------|----------------|
D|----------------|----------------|----------------|----------------|
A|----------------|--------2-------|----------------|----------------|
E|0-------0-------|2---------------|2-------2-------|3-------3-------|

  [Outro]
G|----------------|----------------|
D|0---------------|0---------------|
A|--------3-------|----------0-2-3-|
E|----------------|--------2-------|

G|----------------|----------------|----------------|----------------|
D|0---------------|0---------------|4---------------|4---------------|
A|--------3-------|--------3-------|--------2-------|--------2---3---|
E|----------------|----------------|----------------|----------------|

  Keep repeating the above 4 bars. 
Suggest correction
Give kudos to tab author, rate the tab!
1 2 3 4 5
comments
print report bad tab
guest
You may want to rate the tab now too:
select rating
Wanna post a correction for this tab? Suggest correction