Oops, an error
Loading. Please wait.

One To One Bass

25 views 1 this week
no commentswrite comment
1 2 3 4 5
3 more votes to show rating
add to favorites
launch autoscroll
font size
0
reset
guitar tuner
Autoscroll
slow
fast
+/-
esc
set tempo
stop
Author
Difficulty
Tuning
novice
E A D G
About this tab version
One to One peaked at #45 on Billboard's Hot 100 in 1982. Was this info helpful? Yes No
  [Intro]
G|----------------|----------------|----------------|----------------|
D|----------------|----------------|----------------|----------------|
A|1-----0---------|1-----0---------|1-----1---------|------1---------|
E|----------------|----------------|----------------|3---------------|

G|----------------|----------------|----------------|----------------|----|
D|----------------|----------------|----------------|----------------|----|
A|----------------|------3---------|3---------------|1---------------|1---|
E|4---------------|3---------------|----------------|----------------|----|

  [Verse]
G|----------------|----------------|----------------|----------------|
D|1---1---1---1---|1---1---1-------|----------------|----------------|
A|----------------|----------------|3---3---3---3---|3---3---3---1---|
E|----------------|------------3---|----------------|----------------|

G|----------------|----------------|----------------|----------------|
D|----------------|----------------|1---------------|----------------|
A|----------------|----------------|------1---------|------3---------|
E|4-----4---------|4-----4---------|----------------|3---------------|
  
  [Chorus]
G|----------------|----------------|----------------|----------------|
D|----------------|----------------|1---------------|----------------|
A|----------------|----------------|------1---------|------3---------|
E|4-----4---------|4-----4---------|----------------|3---------------|

G|----------------|----------------|----------------|----------------|
D|----------------|----------------|3-----3-3-------|----------------|
A|----------------|------3---------|----------------|1-----------1---|
E|4-----4---------|3---------------|----------------|----------------|

G|----------------|----------------|----------------|----------------|
D|1---------------|1-----1-----1---|----------------|----------------|
A|----------------|----------------|3---------------|3-----3-----1---|
E|----------------|----------------|------------3---|----------------|

  [Verse]
G|----------------|----------------|----------------|----------------|
D|1---1---1---1---|1---1---1-------|----------------|----------------|
A|----------------|----------------|3---3---3---3---|3---3---3---1---|
E|----------------|------------3---|----------------|----------------|

G|----------------|----------------|----------------|----------------|
D|----------------|----------------|1---------------|----------------|
A|----------------|----------------|------1---------|------3---------|
E|4-----4---------|4-----4---------|----------------|3---------------|
  
  [Chorus]
G|----------------|----------------|----------------|----------------|
D|----------------|----------------|1---------------|----------------|
A|----------------|----------------|------1---------|------3---------|
E|4-----4---------|4-----4---------|----------------|3---------------|

G|----------------|----------------|----------------|----------------|
D|----------------|----------------|3-----3-3-------|----------------|
A|----------------|------3---------|----------------|1-----------1---|
E|4-----4---------|3---------------|----------------|----------------|

  [Break]
G|----------------|----------------|----------------|----------------|
D|1---------------|--------0-------|----------------|----------------|
A|----------------|----------------|4---------------|----------------|
E|----------------|----------------|----------------|4-------4-------|

G|----------------|----------------|----------------|----------------|
D|----------------|----------------|----------------|----------------|
A|3-----3-3-------|3-----3-3-------|1-------1-------|----------------|
E|----------------|----------------|----------------|4---------------|

  [Chorus]
G|----------------|----------------|----------------|----------------|
D|----------------|----------------|1---------------|----------------|
A|----------------|----------------|------1---------|------3---------|
E|4-----4---------|4-----4---------|----------------|3---------------|

G|----------------|----------------|----------------|----------------|
D|----------------|----------------|3-----3-3-------|----------------|
A|----------------|------3---------|----------------|1-----------1---|
E|4-----4---------|3---------------|----------------|----------------|

  [Outro]
G|----------------|----------------|
D|1---------------|1-----------1-3-|
A|----------------|--------1-3-----|
E|----------------|----------------|

G|----------------|----------------|----------------|----------------|
D|1-----3---------|1-----3---------|1-----1-1-------|1-----1-1---1---|
A|----------------|----------------|------------1---|----------------|
E|----------------|----------------|----------------|----------------|

  Keep repeating the above 4 bars. 
Suggest correction
Give kudos to tab author, rate the tab!
1 2 3 4 5
comments
print report bad tab
guest
You may want to rate the tab now too:
select rating
Wanna post a correction for this tab? Suggest correction