Oops, an error
Loading. Please wait.

Only Love Is Real Bass Tab

1 view 1 this week
no commentswrite comment
1 2 3 4 5
3 more votes to show rating
add to favorites
launch autoscroll
font size
0
reset
guitar tuner
Autoscroll
slow
fast
+/-
esc
set tempo
stop
Help us to improve Ultimate-Guitar.com Take our survey!
×
Author
Difficulty
novice
About this tab version
Crosby and Nash sang background vocals on this song. Was this info helpful? Yes No
  4 beats per bar
  [Intro]
G|--------|0-------|--------|0-------|--------|0-------|--------|0-------|
D|0-------|--------|0-------|------3-|0-------|--------|0-----3-|--------|
A|--------|----3---|--------|--------|--------|--------|--------|--------|
E|--------|--------|--------|--------|--------|--------|--------|--------|

  [Verse]
G|--------|--------|--------|--------|--------|----0---|0-------|--------|
D|0-----0-|--------|0-----0-|--------|0-----0-|--------|--------|--------|
A|--------|0-----0-|--------|0-----0-|--------|3-------|----3---|0-----0-|
E|--------|--------|--------|--------|--------|--------|--------|--------|

G|--------|--------|--------|--------|----0---|0-----0-|0-----0-|0-------|
D|--------|0-----0-|--------|0-----0-|0-------|--------|--------|----3---|
A|0-----0-|--------|0-----0-|--------|--------|--------|--------|--------|
E|--------|--------|--------|--------|--------|--------|--------|--------|
  
  [Chorus]
G|--------|----0---|--------|0-------|--------|--------|--------|0-------|
D|--------|--------|----3---|----3---|--------|2---2---|----0---|--------|
A|2-----2-|3-------|3-------|--------|3-----3-|--------|0-------|----3---|
E|--------|--------|--------|--------|--------|--------|--------|--------|

G|--------|--------|--------|----0---|----0---|--------|--------|0-----0-|
D|3-----3-|2-----2-|--------|0-------|--------|--------|----3---|--------|
A|--------|--------|0-----0-|--------|3-------|3-----3-|3-------|--------|
E|--------|--------|--------|--------|--------|--------|--------|--------|

G|--------|0-----0-|--------|0-----0-|--------|0-----0-|--------|--------|
D|0-----0-|--------|0-----0-|--------|0-----0-|--------|0-----0-|--------|
A|--------|--------|--------|--------|--------|--------|--------|0-----0-|
E|--------|--------|--------|--------|--------|--------|--------|--------|

  [Verse]
G|--------|--------|--------|--------|--------|----0---|0-------|--------|
D|0-----0-|--------|0-----0-|--------|0-----0-|--------|--------|--------|
A|--------|0-----0-|--------|0-----0-|--------|3-------|----3---|0-----0-|
E|--------|--------|--------|--------|--------|--------|--------|--------|

G|--------|--------|--------|--------|0-------|----0---|0-----0-|0-------|
D|--------|0-----0-|--------|0-----0-|--------|0-------|--------|----3---|
A|0-----0-|--------|0-----0-|--------|--------|--------|--------|--------|
E|--------|--------|--------|--------|--------|--------|--------|--------|

  [Chorus]
G|--------|----0---|--------|0-------|--------|--------|--------|0-------|
D|--------|--------|----3---|----3---|--------|2---2---|----0---|--------|
A|2-----2-|3-------|3-------|--------|3-----3-|--------|0-------|----3---|
E|--------|--------|--------|--------|--------|--------|--------|--------|

G|--------|--------|--------|----0---|----0---|--------|--------|0-----0-|
D|3-----3-|2-----2-|--------|0-------|--------|--------|----3---|--------|
A|--------|--------|0-----0-|--------|3-------|3-----3-|3-------|--------|
E|--------|--------|--------|--------|--------|--------|--------|--------|

G|--------|----0---|--------|0-------|
D|--------|--------|----3---|----3---|
A|2-----2-|3-------|3-------|--------|
E|--------|--------|--------|--------|

  [Outro]
G|--------|0-----0-|--------|0-----0-|
D|0-----0-|--------|0-----0-|--------|
A|--------|--------|--------|--------|
E|--------|--------|--------|--------|

G|--------|0-----0-|--------|--------|--------|--------|--------|--------|
D|0-----0-|--------|0-----0-|--------|0-----0-|--------|0-----0-|--------|
A|--------|--------|--------|0-----0-|--------|0-----0-|--------|--------|
E|--------|--------|--------|--------|--------|--------|--------|3-----3-|

G|--------|--------|
D|0-----0-|--------|
A|--------|0-----0-|
E|--------|--------|
Suggest correction
Give kudos to tab author, rate the tab!
1 2 3 4 5
comments
print report bad tab
guest
You may want to rate the tab now too:
select rating
Wanna post a correction for this tab? Suggest correction