Oops, an error
Loading. Please wait.

Porpoise Song Bass Tab

4 views 1 this week
no commentswrite comment
1 2 3 4 5
3 more votes to show rating
add to favorites
launch autoscroll
font size
0
reset
guitar tuner
Autoscroll
slow
fast
+/-
esc
set tempo
stop
Help us to improve Ultimate-Guitar.com Take our survey!
×
Author
Difficulty
novice
About this tab version
This song was written by Gerry Goffin and Carole King and made famous by the Monkees. The song has been described as using the Psychedelic Pop genre. Was this info helpful? Yes No
  [Intro]
G|----------------|----------------|----------------|----------------|
D|----------------|----------------|----------------|1---------------|
A|----------------|----------------|----------------|----------------|
E|4---------------|----------------|----------------|----------------|

G|----------------|----------------|----------------|----------------|
D|----------------|----------------|----------------|----------------|
A|----------------|----------------|----------------|----------------|
E|----------------|----------------|----------------|4---------------|

G|----------------|----------------|----------------|----------------|
D|----------------|----------------|1---------------|----------------|
A|----------------|----------------|----------------|----------------|
E|----------------|----------------|----------------|----------------|

G|----------------|----------------|----------------|----------------|
D|----------------|----------------|----------------|----------------|
A|----------------|----------------|----------------|----------------|
E|----------------|----------------|----------------|--------4-------|

G|----------------|----------------|
D|--------1-------|----------------|
A|----------------|----4-----------|
E|----------------|----------------|

G|----------------|----------------|----------------|----------------|
D|----------------|----------------|------------1---|----------------|
A|2-----------4---|------------1---|----------------|----------------|
E|----------------|----------------|----------------|----------------|

G|----------------|----------------|----------------|----------------|
D|----------------|----------------|----------------|----------------|
A|----------------|----------------|----------------|--------2-------|
E|4---------------|4-------4-------|4-------4-------|----2-------4---|

  [Verse]
G|----------------|----------------|----------------|----------------|
D|----------------|----------------|----------------|----------------|
A|----------------|----------------|----------------|4-----------4---|
E|4-----------4---|0-----------0---|2-----------2---|----------------|

G|----------------|----------------|----------------|----------------|
D|----------------|----------------|----------------|----------------|
A|----------------|----------------|----------------|----------------|
E|4-------4-------|4-------4-------|4-------4-------|4-------4-------|

G|----------------|----------------|----------------|----------------|
D|----------------|----------------|----------------|----------------|
A|----------------|----------------|----------------|4-----------4---|
E|4-----------4---|0-----------0---|2-----------2---|----------------|

                                    [Chorus]
G|----------------|----------------|----------------|----------------|
D|----------------|----------------|----------------|----------------|
A|----------------|----------------|4-----------4---|4-----------4---|
E|4-----------4---|4-----------4---|----------------|----------------|

G|----------------|----------------|----------------|----------------|
D|----------------|----------------|----------------|----------------|
A|1-----------1---|----------------|4-----------4---|4-------4-------|
E|----------------|4-----------4---|----------------|----------------|

G|----------------|----------------|----------------|----------------|
D|----------------|----------------|----------------|----------------|
A|1-----------1---|1-----------1---|----------------|----------------|
E|----------------|----------------|4-----------4---|2-----------2---|

  Good                                               Good
G|----------------|----------------|----------------|----------------|
D|----------------|----------------|----------------|----------------|
A|4-------4-------|4---------------|----------------|2-------2-------|
E|----------------|--------2-------|2-------2-------|----------------|

                                                     [*]
G|----------------|----------------|----------------|----------------|
D|----------------|----------------|----------------|----------------|
A|2-------2-------|----------------|----------------|--------4-------|
E|----------------|2-------2-------|2-------2-------|2---------------|

G|1-------|----------------|
D|--------|2---------------|
A|--------|--------3-------|
E|--------|----------------|

  [Verse]
G|----------------|----------------|----------------|----------------|
D|----------------|----------------|----------------|----------------|
A|----------------|----------------|----------------|4-----------4---|
E|4------------4--|0-----------0---|2-----------2---|----------------|

G|----------------|----------------|----------------|----------------|
D|----------------|----------------|----------------|----------------|
A|----------------|----------------|----------------|----------------|
E|4-------4-------|4-------4-------|4-------4-------|4-------4-------|

G|----------------|----------------|----------------|----------------|
D|----------------|----------------|----------------|----------------|
A|----------------|----------------|----------------|4-----------4---|
E|4-----------4---|0-----------0---|2-----------2---|----------------|

                                    [Chorus]
G|----------------|----------------|----------------|----------------|
D|----------------|----------------|----------------|----------------|
A|----------------|----------------|4-----------4---|4-----------4---|
E|4-----------4---|4-----------4---|----------------|----------------|

G|----------------|----------------|----------------|----------------|
D|----------------|----------------|----------------|----------------|
A|1-----------1---|----------------|4-----------4---|4-------4-------|
E|----------------|4-----------4---|----------------|----------------|

G|----------------|----------------|----------------|----------------|
D|----------------|----------------|----------------|----------------|
A|1-----------1---|1-----------1---|----------------|----------------|
E|----------------|----------------|4-----------4---|2-----------2---|

G|----------------|----------------|----------------|----------------|
D|----------------|----------------|----------------|----------------|
A|4-------4-------|4---------------|----------------|2-------2-------|
E|----------------|--------2-------|2-------2-------|----------------|

G|----------------|----------------|----------------|----------------|
D|----------------|----------------|----------------|----------------|
A|2-------2-------|----------------|--------2-------|2-------2-------|
E|----------------|2-------2-------|2---2-------4---|----------------|

  [Outro]
G|----------------|----------------|----------------|----------------|
D|----------------|----------------|----------------|----------------|
A|2-------2-------|----------------|--------2-------|----------------|
E|----------------|2-------2-------|2---2-------4---|2---------------|

G|----------------|----------------|----------------|----------------|
D|----------------|----------------|----------------|----------------|
A|----------------|----------------|----------------|----------------|
E|2---------------|4---------------|----------------|----------------|

G|----------------|----------------|----------------|----------------|
D|----------------|----------------|----------------|----------------|
A|----------------|----------------|------------4---|----------------|
E|--------4-------|----------------|----------------|----------------|

G|----------------|----------------|----------------|----------------|
D|----------------|1---------------|----------------|----------------|
A|----------------|----------------|----------------|----------------|
E|----------------|----------------|----------------|----------------|

G|----------------|----------------|----------------|----------------|
D|----------------|----------------|------------1---|----------------|
A|----------------|----------------|----------------|----------------|
E|----------------|----------------|----------------|----------------|

[*] Nod your head forward on beats 1 and 3 if this part is difficult. 
The short bar is 2 beats instead of 4.
Look for the higher quality version of this song. Look for Carole and 
two guys in suits. 
The beginning lyrics may be: "Erue, Domine, animam eius requiescat in 
pace." The Roman Catholic Requiem Mass for the Dead. 
Suggest correction
Give kudos to tab author, rate the tab!
1 2 3 4 5
comments
print report bad tab
guest
You may want to rate the tab now too:
select rating
Wanna post a correction for this tab? Suggest correction