Oops, an error
Loading. Please wait.

School Bells Are Ringing Bass Tab

28 views 6 this week
no commentswrite comment
1 2 3 4 5
3 more votes to show rating
add to favorites
launch autoscroll
font size
0
reset
guitar tuner
Autoscroll
slow
fast
+/-
esc
set tempo
stop
Help us to improve Ultimate-Guitar.com Take our survey!
×
Author
Difficulty
novice
About this tab version
This song was co-written by Carole King and Gerry Goffin and released in 1963. Was this info helpful? Yes No
  [Intro]
G|----------------|----------------|----------------|----------------|
D|----------------|2-----------4---|----------------|----------------|
A|4---------------|----------------|4---------------|------------2---|
E|----------------|----------------|------------4---|4---------------|
 
  [Chorus]
G|----------------|----------------|----------------|----------------|
D|----------------|2-----------4---|----------------|----------------|
A|4---------------|----------------|4---------------|----------------|
E|----------------|----------------|------------4---|4-------4-------|

G|----------------|----------------|----------------|----------------|
D|----------------|2-----------4---|----------------|----------------|
A|4---------------|----------------|4---------------|4-----------2---|
E|----------------|----------------|--------4-------|--------4-------|
 
  [Verse]
G|----------------|----------------|----------------|----------------|
D|----------------|2-----------4---|----------------|----------------|
A|4---------------|----------------|4---------------|----------------|
E|----------------|----------------|------------4---|4-------4-------|

G|----------------|----------------|----------------|----------------|
D|----------------|2-----------4---|----------------|----------------|
A|4---------------|----------------|4---------------|----------------|
E|----------------|----------------|--------4-------|4-------4---4---|

  [Chorus]
G|----------------|----------------|----------------|----------------|
D|----------------|2-----------4---|----------------|----------------|
A|4---------------|----------------|4---------------|----------------|
E|----------------|----------------|------------4---|4-------4-------|

G|----------------|----------------|----------------|----------------|
D|----------------|2-----------4---|----------------|----------------|
A|4---------------|----------------|4---------------|4-----------2---|
E|----------------|----------------|--------4-------|--------4-------|

  [Verse]
G|----------------|----------------|----------------|----------------|
D|----------------|2-----------4---|----------------|----------------|
A|4---------------|----------------|4---------------|----------------|
E|----------------|----------------|------------4---|4-------4-------|

G|----------------|----------------|----------------|----------------|
D|----------------|2-----------4---|----------------|----------------|
A|4---------------|----------------|4---------------|----------------|
E|----------------|----------------|--------4-------|4-------4---4---|

  [Chorus]
G|----------------|----------------|----------------|----------------|
D|----------------|2-----------4---|----------------|----------------|
A|4---------------|----------------|4---------------|----------------|
E|----------------|----------------|------------4---|4-------4-------|

G|----------------|----------------|----------------|----------------|
D|----------------|2-----------4---|----------------|----------------|
A|4---------------|----------------|4---------------|4-----------2---|
E|----------------|----------------|--------4-------|--------4-------|

  [Break]
G|----------------|----------------|----------------|----------------|
D|----------------|4-------4-------|----------------|----------------|
A|4-------4-------|----------------|4-------4-------|------------2---|
E|----------------|----------------|----------------|4-------4-------|

G|----------------|----------------|----------------|----------------|
D|----------------|4-------4-------|----------------|----------------|
A|4-------4-------|----------------|4-------4-------|4-----------2---|
E|----------------|----------------|----------------|--------4-------|

  [Chorus]
G|----------------|----------------|----------------|----------------|
D|----------------|2-----------4---|----------------|----------------|
A|4---------------|----------------|4---------------|----------------|
E|----------------|----------------|------------4---|4-------4-------|

G|----------------|----------------|----------------|----------------|
D|----------------|2-----------4---|----------------|----------------|
A|4---------------|----------------|4---------------|4-----------2---|
E|----------------|----------------|--------4-------|--------4-------|

  [Outro]
G|----------------|----------------|----------------|----------------|
D|----------------|2-----------4---|----------------|----------------|
A|4---------------|----------------|4---------------|----------------|
E|----------------|----------------|------------4---|4-------4-------|

G|----------------|----------------|----------------|----------------|
D|----------------|2-----------4---|----------------|----------------|
A|4---------------|----------------|4---------------|4-----------2---|
E|----------------|----------------|--------4-------|--------4-------|

G|----------------|----------------|----------------|----------------|
D|----------------|2-----------4---|----------------|----------------|
A|4---------------|----------------|4---------------|----------------|
E|----------------|----------------|------------4---|4-------4-------|

G|----------------|----------------|----------------|----------------|
D|----------------|2-----------4---|----------------|----------------|
A|4---------------|----------------|4---------------|4-----------2---|
E|----------------|----------------|--------4-------|--------4-------|

Key of C# Minor.
Suggest correction
Give kudos to tab author, rate the tab!
1 2 3 4 5
comments
print report bad tab
guest
You may want to rate the tab now too:
select rating
Wanna post a correction for this tab? Suggest correction