Oops, an error
Loading. Please wait.

So Far Away bass

version 1
version 1

Whole song

  • I think this is the 1st bass tab of this Carole Ki... Show more

Interactive

217 views 1 this week
no commentswrite comment
1 2 3 4 5
3 more votes to show rating
add to favorites
×
Save as Personal and add changes to this tab that will be seen only by you. Learn more ›
×
You can save this tab as Personal to edit and correct it or add notes. All changes will be seen only by you. Learn more »
launch autoscroll
font size
0
reset
guitar tuner
edit
Autoscroll
slow
fast
+/-
esc
set tempo
stop
Author
About this tab version
I think this is the 1st bass tab of this Carole King song here. I think mine is easy to follow with note lengths and bars. Was this info helpful? Yes No
---------------------------------------------------------------------
                  So Far Away - Carole King
--------------------------------------------------------------------- 
Tabbed by: RagnaarMN 
Tuning: Standard

Slowly

  far   a-way      doesn't          
G|----------------|----------------|----------------|----------------|
D|0---------------|0-----------0---|----------------|----------------|
A|--------0-------|--------0-------|----------------|3---------------|
E|----------------|----------------|0---------------|--------1-------|

  face                              time
G|----------------|----------------|----------------|----------------|
D|0---------------|2---1-----------|0---------------|----------------|
A|----------------|--------3-------|----------------|----------0-3-2-|
E|----------------|------------3---|----------------|----------------|

                                    do               how
G|----------------|----------------|----------------|----------------|
D|----------------|----------------|0---------------|----------------|
A|----------------|--------0-------|----------------|------------0---|
E|3-------------2-|0---------------|----------------|3---2---0-------|

  far
G|----------------|----------------|----------------|----------------|
D|0---------------|0-------0-------|----------------|----------------|
A|----------------|------------4---|2-----2-0-----0-|----------------|
E|----------------|----------------|----------------|3-----------2---|


G|----------------|----------------|----------------|----------------|
D|----------------|0-----------3---|----------------|----------------|
A|--------0-------|--------------4-|------------4---|----------------|
E|0-----0---------|----------------|0---------------|0---------------|

  rather                            far
G|----------------|----------------|----------------|----------------|
D|----------------|----------------|0---------------|----------------|
A|0-------2-------|--------0-------|----------------|----------0-3-2-|
E|----------------|0---------------|----------------|----------------|
 
                                    face
G|----------------|----------------|----------------|----------------|
D|----------------|----------------|0---------------|----------------|
A|----------------|--------0-------|----------------|------------0---|
E|3-------------2-|0---------------|----------------|3---2---0-------|

                   yeah  
G|----------------|----------------|----------------|----------------|
D|0---------------|0---------------|----------------|----------------|
A|----------------|----------0-3-2-|----------------|----0-----------|
E|----------------|----------------|3-------------2-|0-0-------------|

  travel                            nothing          mind
G|----------------|----------------|----------------|----------------|
D|----------------|----------------|----------------|0-----------0---|
A|--------0-------|--------0-------|--------0-------|--------------0-|
E|3---------------|0---------------|0---------------|----------------|

                   own                               yet
G|----------------|----------------|----------------|----------------|
D|----------------|----------------|----------------|----------------|
A|----------------|----------------|0-------2-------|----------------|
E|2-----------2---|0---------------|----------------|0---0-----------|

                   far              does
G|----------------|----------------|----------------|----------------|
D|----------------|0---------------|0-----------0---|----------------|
A|0-------------0-|----------------|----------------|----------------|
E|----------------|----------------|----------------|3-------------2-|

                   face
G|----------------|----------------|----------------|
D|----------------|0---------------|----------------|
A|--------0-------|----------------|------------0---|
E|0---------------|----------------|3---2---0-------|

  far
G|----------------|----------------|----------------|----------------|
D|0---------------|----------------|----------------|----------------|
A|----------------|----------0-3-2-|----------------|--------0-------|
E|----------------|----------------|3-------------2-|0---------------|

Keep Repeating The Above Four Bars

The 3 note runs of the chorus are simplified.
----------------------------------------------------------------------
Suggest correction
Creating personal tab
Creating personal tab
You can edit any tab online and save it as your Personal.

You can edit, replace or remove any tab part or add personal notes – all changes will be seen only by you.

Personal tabs can be accessed anytime from any device, even offline.
Learn more »
Give kudos to tab author, rate the tab!
1 2 3 4 5
comments
print report bad tab
guest
You may want to rate the tab now too:
select rating
Wanna post a correction for this tab? Suggest correction