Oops, an error
Loading. Please wait.

Some Of Your Lovin Bass Tab

4 views 1 this week
no commentswrite comment
1 2 3 4 5
3 more votes to show rating
add to favorites
launch autoscroll
font size
0
reset
guitar tuner
Autoscroll
slow
fast
+/-
esc
set tempo
stop
Help us to improve Ultimate-Guitar.com Take our survey!
×
Author
Difficulty
novice
About this tab version
Compared to her earlier songs, her voice here is approaching her Tapestry Album voice. Was this info helpful? Yes No
  [Intro]
G|----------------|----------------|----------------|----------------|
D|----------------|----------------|1---------------|1---------------|
A|4---------------|4---------------|----------------|----------------|
E|----------------|----------------|----------------|----------------|

G|----------------|----------------|----------------|----------------|
D|----------------|----------------|1---------------|1-----------1---|
A|4---------------|4---------------|----------------|----------------|
E|----------------|----------------|----------------|----------------|

 [Chorus]
G|----------------|----------------|----------------|----------------|
D|----------------|1-----------1---|----------------|1-----------1---|
A|4-----------4---|----------------|4-----------4---|----------------|
E|----------------|----------------|----------------|----------------|

G|----------------|----------------|----------------|----------------|
D|----------------|1-----------1---|1-----------1---|1-----------1---|
A|4-----------4---|----------------|----------------|----------------|
E|----------------|----------------|----------------|----------------|

G|----------------|----------------|----------------|----------------|
D|1-----------1---|3-----------3---|4-----------4---|1-----------1---|
A|----------------|----------------|----------------|----------------|
E|----------------|----------------|----------------|----------------|

G|----------------|----------------|----------------|----------------|
D|----------------|1-----------1---|3-----------3---|1-----------1---|
A|4-----------4---|----------------|----------------|----------------|
E|----------------|----------------|----------------|----------------|

  [Verse]
G|----------------|----------------|----------------|----------------|
D|----------------|1-----------1---|----------------|1-----------1---|
A|4-----------4---|----------------|4-----------4---|----------------|
E|----------------|----------------|----------------|----------------|

G|----------------|----------------|----------------|----------------|
D|----------------|1-----------1---|----------------|1-----------1---|
A|4-----------4---|----------------|4-----------4---|----------------|
E|----------------|----------------|----------------|----------------|

G|----------------|----------------|----------------|----------------|
D|----------------|1-----------1---|----------------|1-----------1---|
A|4-----------4---|----------------|4-----------4---|----------------|
E|----------------|----------------|----------------|----------------|

G|----------------|----------------|----------------|1-----------1---|
D|1-----------1---|3-----------3---|4-----------4---|----------------|
A|----------------|----------------|----------------|----------------|
E|----------------|----------------|----------------|----------------|

  [Chorus]
G|----------------|----------------|----------------|----------------|
D|----------------|1-----------1---|----------------|1-----------1---|
A|4-----------4---|----------------|4-----------4---|----------------|
E|----------------|----------------|----------------|----------------|

G|----------------|----------------|----------------|----------------|
D|----------------|1-----------1---|1-----------1---|1-----------1---|
A|4-----------4---|----------------|----------------|----------------|
E|----------------|----------------|----------------|----------------|

G|----------------|----------------|----------------|----------------|
D|1-----------1---|3-----------3---|4-----------4---|1-----------1---|
A|----------------|----------------|----------------|----------------|
E|----------------|----------------|----------------|----------------|

G|----------------|----------------|----------------|----------------|
D|----------------|1-----------1---|3-----------3---|1-----------1---|
A|4-----------4---|----------------|----------------|----------------|
E|----------------|----------------|----------------|----------------|

  [Bridge]
G|----------------|----------------|----------------|----------------|
D|----------------|1---------------|1---------------|----------------|
A|4---------------|----------------|--------1-------|1-----------1---|
E|----------------|----------------|----------------|----------------|

G|----------------|----------------|----------------|----------------|
D|----------------|----------------|1---------------|1-----------1---|
A|1-----------1---|1-----------1---|----------------|----------------|
E|----------------|----------------|----------------|----------------|

G|----------------|----------------|----------------|----------------|
D|----------------|----------------|1---------------|1-----------1---|
A|4---------------|----------------|----------------|----------------|
E|----------------|----------------|----------------|----------------|

 [Verse]
G|----------------|----------------|----------------|----------------|
D|----------------|1-----------1---|----------------|1-----------1---|
A|4-----------4---|----------------|4-----------4---|----------------|
E|----------------|----------------|----------------|----------------|

G|----------------|----------------|----------------|----------------|
D|----------------|1-----------1---|----------------|1-----------1---|
A|4-----------4---|----------------|4-----------4---|----------------|
E|----------------|----------------|----------------|----------------|

G|----------------|----------------|----------------|----------------|
D|----------------|1-----------1---|----------------|1-----------1---|
A|4-----------4---|----------------|4-----------4---|----------------|
E|----------------|----------------|----------------|----------------|

G|----------------|----------------|----------------|1-----------1---|
D|1-----------1---|3-----------3---|4-----------4---|----------------|
A|----------------|----------------|----------------|----------------|
E|----------------|----------------|----------------|----------------|

  [Chorus]
G|----------------|----------------|----------------|----------------|
D|----------------|1-----------1---|----------------|1-----------1---|
A|4-----------4---|----------------|4-----------4---|----------------|
E|----------------|----------------|----------------|----------------|

G|----------------|----------------|----------------|----------------|
D|----------------|1-----------1---|1-----------1---|1-----------1---|
A|4-----------4---|----------------|----------------|----------------|
E|----------------|----------------|----------------|----------------|

G|----------------|----------------|----------------|----------------|
D|1-----------1---|3-----------3---|4-----------4---|1-----------1---|
A|----------------|----------------|----------------|----------------|
E|----------------|----------------|----------------|----------------|

G|----------------|----------------|----------------|----------------|
D|----------------|1-----------1---|3-----------3---|1-----------1---|
A|4-----------4---|----------------|----------------|----------------|
E|----------------|----------------|----------------|----------------|

  [Outro]
G|----------------|----------------|----------------|----------------|
D|1-----------1---|1-----------1---|----------------|----------------|
A|----------------|----------------|4-----------4---|4-----------4---|
E|----------------|----------------|----------------|----------------|

G|----------------|----------------|----------------|----------------|
D|----------------|1-----------1---|----------------|----------------|
A|4-----------4---|----------------|4-----------4---|----------------|
E|----------------|----------------|----------------|4---------------|
Suggest correction
Give kudos to tab author, rate the tab!
1 2 3 4 5
comments
print report bad tab
guest
You may want to rate the tab now too:
select rating
Wanna post a correction for this tab? Suggest correction