Oops, an error
Loading. Please wait.

Sweet Seasons Bass Tab

19 views 1 this week
no commentswrite comment
1 2 3 4 5
3 more votes to show rating
add to favorites
launch autoscroll
font size
0
reset
guitar tuner
Autoscroll
slow
fast
+/-
esc
set tempo
stop
Help us to improve Ultimate-Guitar.com Take our survey!
×
Author
Difficulty
novice
About this tab version
This song rose to number 9 on Billboard in 1972. Was this info helpful? Yes No
  [Intro]
G|----------------|----------------|----------------|----------------|
D|----------------|----------------|----------------|----------------|
A|1-----1-1-------|1-----1-1-------|1-----1-1-------|1-----1-1---1---|
E|----------------|----------------|----------------|----------------|

  [Verse]
G|----------------|----------------|----------------|----------------|
D|----------------|----------------|----------------|----------------|
A|1-----1-1-----1-|1-----1-1-----1-|1-----1-1-----1-|1-----1-1-----1-|
E|----------------|----------------|----------------|----------------|

G|----------------|----------------|----------------|----------------|
D|3-----3-3-----3-|3-----3-3-----3-|----------------|----------------|
A|----------------|----------------|1-----1-1-----1-|1-----1-1-----1-|
E|----------------|----------------|----------------|----------------|

G|----------------|----------------|----------------|----------------|
D|----------------|----------------|----------------|----------------|
A|1-----1-1-----1-|1-----1-1-----1-|1-----1-1-----1-|1-----1-1-----1-|
E|----------------|----------------|----------------|----------------|

G|----------------|----------------|----------------|----------------|
D|3-----3-3-----3-|3-----3-3-----3-|----------------|----------------|
A|----------------|----------------|1-----1-1-----1-|1-----1-1-----1-|
E|----------------|----------------|----------------|----------------|

  [Chorus]
G|----------------|----------------|----------------|----------------|
D|3-----3-3-----3-|3-----3-3-----3-|----------------|----------------|
A|----------------|----------------|1-----1-1-----1-|1-----1-1-----1-|
E|----------------|----------------|----------------|----------------|

G|----------------|----------------|----------------|0-----0-0-------|
D|0-----0-0-------|1-----1-1-------|3-----3-3-------|----------------|
A|----------------|----------------|----------------|----------------|
E|----------------|----------------|----------------|----------------|

G|----------------|----------------|----------------|----------------|
D|----------------|3-----3-3-------|----------------|----------------|
A|3-----3-3-------|----------------|1-----1-1-------|1-----1-1-------|
E|----------------|----------------|----------------|----------------|

G|----------------|----------------|
D|----------------|----------------|
A|1-----1-1-----1-|1-----1-1-----1-|
E|----------------|----------------|

  [Break]
G|----------------|----------------|----------------|----------------|
D|----------------|----------------|----------------|----------------|
A|1-----1-3-----3-|1-----1-3-----3-|1-----1-3-----3-|1-----1-3-----3-|
E|----------------|----------------|----------------|----------------|

G|----------------|----------------|----------------|----------------|
D|----------------|----------------|----------------|----------------|
A|1-----1-3-----3-|1-----1-3-----3-|1-----1-3-----3-|1-----1-3-----3-|
E|----------------|----------------|----------------|----------------|

G|----------------|----------------|----------------|----------------|
D|----------------|0-------0---0---|1-------1---1---|3-------3---3---|
A|3-------3---3---|----------------|----------------|----------------|
E|----------------|----------------|----------------|----------------|

G|----------------|----------------|----------------|----------------|
D|----------------|----------------|----------------|----------------|
A|1-----1-1-----1-|1-----1-1-----1-|1-----1-1-----1-|1-----1-1-----1-|
E|----------------|----------------|----------------|----------------|

  [Verse]
G|----------------|----------------|----------------|----------------|
D|----------------|----------------|----------------|----------------|
A|1-----1-1-----1-|1-----1-1-----1-|1-----1-1-----1-|1-----1-1-----1-|
E|----------------|----------------|----------------|----------------|

G|----------------|----------------|----------------|----------------|
D|3-----3-3-----3-|3-----3-3-----3-|----------------|----------------|
A|----------------|----------------|1-----1-1-----1-|1-----1-1-----1-|
E|----------------|----------------|----------------|----------------|

G|----------------|----------------|----------------|----------------|
D|----------------|----------------|----------------|----------------|
A|1-----1-1-----1-|1-----1-1-----1-|1-----1-1-----1-|1-----1-1-----1-|
E|----------------|----------------|----------------|----------------|

G|----------------|----------------|----------------|----------------|
D|3-----3-3-----3-|3-----3-3-----3-|----------------|----------------|
A|----------------|----------------|1-----1-1-----1-|1-----1-1-----1-|
E|----------------|----------------|----------------|----------------|

  [Chorus]
G|----------------|----------------|----------------|----------------|
D|3-----3-3-----3-|3-----3-3-----3-|----------------|----------------|
A|----------------|----------------|1-----1-1-----1-|1-----1-1-----1-|
E|----------------|----------------|----------------|----------------|

G|----------------|----------------|----------------|0-----0-0-------|
D|0-----0-0-------|1-----1-1-------|3-----3-3-------|----------------|
A|----------------|----------------|----------------|----------------|
E|----------------|----------------|----------------|----------------|

G|----------------|----------------|----------------|----------------|
D|----------------|3-------------3-|----------------|----------------|
A|3-----3-3-------|----------------|1-----1-1-------|1-----1-1-------|
E|----------------|----------------|----------------|----------------|

  [Outro]
G|----------------|----------------|----------------|----------------|
D|----------------|----------------|----------------|----------------|
A|1-----1-1-----1-|1-----1-3-----3-|1-----1-1-----1-|1-----1-1-----1-|
E|----------------|----------------|----------------|----------------|

  Keep repeating the above 4 bars
Suggest correction
Give kudos to tab author, rate the tab!
1 2 3 4 5
comments
print report bad tab
guest
You may want to rate the tab now too:
select rating
Wanna post a correction for this tab? Suggest correction