Oops, an error
Loading. Please wait.

The Loco-Motion Bass Tab

28 views 6 this week
no commentswrite comment
1 2 3 4 5
3 more votes to show rating
add to favorites
launch autoscroll
font size
0
reset
guitar tuner
Autoscroll
slow
fast
+/-
esc
set tempo
stop
Help us to improve Ultimate-Guitar.com Take our survey!
×
Author
Difficulty
intermediate
About this tab version
This song was written by Gerry Goffin and Carole King. Was this info helpful? Yes No
  [Intro]
G|----------------|----------------|----------------|----------------|
D|1-----1-1-------|1-----1-1-------|1-----1-1-------|1-----1-1-------|
A|----------------|------------1---|----------------|------------1---|
E|----------------|----------------|----------------|----------------|

G|----------------|----------------|----------------|----------------|
D|1-----1-1-----1-|----------------|1-----1-----1---|----------------|
A|----------------|3-----3-----3---|--------1-------|3-----3-----3---|
E|----------------|--------3-------|----------------|--------3-------|

G|----------------|----------------|----------------|----------------|
D|1-----1-1-----1-|----------------|1-----1-----1---|----------------|
A|----------------|3-----3-3---3---|--------1-------|3-----3-1-------|
E|----------------|----------------|----------------|------------3---|

G|1-----1-----1---|----------------|1-------1---0---|----------------|
D|--------1-------|3-----3-----3---|------1---------|----------------|
A|----------------|--------3-------|----------------|------------3---|
E|----------------|----------------|----------------|1-----1-3-------|

  come come   do     the   mo  with me
G|----------------|----------------|----------------|------------0---|
D|----------------|----------------|1-----1---------|1---3---4-------|
A|1-----1-1---1---|----1-----------|--------1-------|----------------|
E|----------------|--------3---1---|----------------|----------------|

G|1-----1---------|1-----1----1----|----------------|----------------|
D|--------1-----1-|--------1-------|1-----1---------|1-----1-----1---|
A|----------------|----------------|--------1---1---|--------1-------|
E|----------------|----------------|----------------|----------------|

G|----------------|----------------|
D|--------3---3---|------------0---|
A|1-----1---------|1-----1-3-------|
E|----------------|----------------|

G|----------------|----------------|----------------|----------------|
D|1-----1-1-------|----------------|1-----1-----1---|----------------|
A|----------------|3-----3-----3---|--------1-------|3-----3-----3---|
E|----------------|--------3-------|----------------|--------3-------|

G|----------------|----------------|----------------|----------------|
D|1-----1-1-----1-|----------------|1-----1-----1---|----------------|
A|----------------|3-----3-3---3---|--------1-------|3-----3-1-------|
E|----------------|----------------|----------------|------------3---|

G|1-----1-----1---|----------------|1-----1---------|----------------|
D|--------1-------|3-----3-----3---|--------1-------|----------------|
A|----------------|--------3-------|----------------|--------3---3---|
E|----------------|----------------|----------------|1-----1---------|

  come come   do     the   mo  with me
G|----------------|----------------|----------------|----------------|
D|1---1-1---------|------------0---|1-------1-------|1---------------|
A|------------1---|----1---3-------|--------------1-|----------------|
E|----------------|----------------|------------3---|----1---2---3---|

G|1-----1---------|1-----1-0-------|----------------|------------1---|
D|--------1-----1-|------------3---|1-----1---------|1---1---4-------|
A|----------------|----------------|--------1-----1-|----------------|
E|----------------|----------------|----------------|----------------|

G|----------------|3---1-----------|
D|--------3---3---|--------4---2---|
A|1-----1---------|----------------|
E|----------------|----------------|

G|----------------|----------------|----------------|----------------|
D|1-----1-1-------|----------------|1-----1-----1---|----------------|
A|----------------|3-----3-----3---|--------1-------|3-----3-----3---|
E|----------------|--------3-------|----------------|--------3-------|

G|----------------|----------------|----------------|------------0---|
D|1-----1-1-----1-|----------------|1-----1-----1---|----------------|
A|----------------|3-----3-3---3---|--------1-------|3-----3-1-------|
E|----------------|----------------|----------------|----------------|

G|1-----1-----1---|----------------|1-----1---------|----------------|
D|--------1-------|3-----3-----3---|--------1-------|3-----3---------|
A|----------------|--------3-------|----------------|--------3---3---|
E|----------------|----------------|----------------|----------------|

  come come   do     the   mo  with me
G|----------------|----------------|----------------|------------0---|
D|1-----1---------|------------0---|1-----1-1-----1-|--------------3-|
A|--------1---1---|----1---3-------|----------------|3-----3-3-1-----|
E|----------------|----------------|----------------|----------------|

G|--------0---3---|----------------|--------0---3---|----3---3-0-----|
D|1-----1---------|3-----3-3-------|1-----1---------|------------3---|
A|----------------|------------1---|----------------|----------------|
E|----------------|----------------|----------------|----------------|

G|------------0---|----------------|----------------|------------1---|
D|1-----1-1-------|--------1-------|1-----1-1-------|--------1-------|
A|--------------1-|3-----3---3-1---|------------3---|----1-----1-----|
E|----------------|----------------|----------------|----------------|

G|--------0-------|------------0---|----------------|------------0---|
D|1-----1---------|--------------3-|1-----1-----1---|--------------3-|
A|------------1---|----1---3-1-----|--------1-------|3-----3---1-----|
E|----------------|----------------|----------------|----------------|

                                    come come   do     the   mo  with
G|----------------|--------3---0---|--------0---3---|----------3-----|
D|1-----1-----1---|----------------|1-----1---------|------------4-3-|
A|--------1-------|3-----3---------|----------------|----1---3-------|
E|----------------|----------------|----------------|----------------|

  me
G|----------------|----------------|----------------|----------------|
D|1---------------|----------------|----------------|----------------|
A|----------------|----------------|----------------|----------------|
E|----------------|----------------|----------------|----------------|
Suggest correction
Give kudos to tab author, rate the tab!
1 2 3 4 5
comments
print report bad tab
guest
You may want to rate the tab now too:
select rating
Wanna post a correction for this tab? Suggest correction