Oops, an error
Loading. Please wait.

The Right Girl Bass Tab

7 views 1 this week
no commentswrite comment
1 2 3 4 5
3 more votes to show rating
add to favorites
launch autoscroll
font size
0
reset
guitar tuner
Autoscroll
slow
fast
+/-
esc
set tempo
stop
Help us to improve Ultimate-Guitar.com Take our survey!
×
Author
Difficulty
novice
About this tab version
This song was released in 1958. Was this info helpful? Yes No
  [Intro]
G|----------------|----------------|
D|----------------|----------------|
A|3-----3---------|3---3-----------|
E|--------1-----1-|----------------|

  [Chorus]
G|----------------|----------------|----------------|----------------|
D|----------------|2-----2-2-----2-|----------------|----------------|
A|3-----3-3-----3-|----------------|0-----0-0-----0-|----------------|
E|----------------|----------------|----------------|4-----4-1-----1-|

G|----------------|----------------|----------------|----------------|
D|----------------|0-----0-0-----0-|----------------|----------------|
A|3-----3-3-----3-|----------------|3-----3---------|3---3-----------|
E|----------------|----------------|--------1-----1-|----------------|

  [Verse]
G|----------------|----------------|----------------|----------------|
D|----------------|2-----2-2-----2-|----------------|----------------|
A|3-----3-3-----3-|----------------|0-----0-0-----0-|----------------|
E|----------------|----------------|----------------|4-----4-1-----1-|

G|----------------|----------------|----------------|----------------|
D|----------------|0-----0-0-----0-|----------------|----------------|
A|3-----3-3-----3-|----------------|3-----3---------|3---3---3---3---|
E|----------------|----------------|--------1-----1-|----------------|

  [Bridge]
G|----------------|----------------|----------------|----------------|
D|3-----3-3-----3-|3-----3-3-----3-|----------------|----------------|
A|----------------|----------------|3-----3---------|3-----3-3-----3-|
E|----------------|----------------|--------3-----3-|----------------|

G|----------------|----------------|----------------|----------------|
D|3-----3-3-----3-|3-----3-3-----3-|0-----0-0-----0-|----------------|
A|----------------|----------------|----------------|----------------|
E|----------------|----------------|----------------|3---3-----------|

  [Chorus]
G|----------------|----------------|----------------|----------------|
D|----------------|2-----2-2-----2-|----------------|----------------|
A|3-----3-3-----3-|----------------|0-----0-0-----0-|----------------|
E|----------------|----------------|----------------|4-----4-1-----1-|

G|----------------|----------------|----------------|----------------|
D|----------------|----------------|----------------|----------------|
A|3-----3-3-----3-|----------------|3-----3---------|3-----3---------|
E|----------------|3-----3-3-----3-|--------1-----1-|--------4-----4-|
                                                          [Key Change]
  [Outro]
G|----------------|----------------|----------------|----------------|
D|----------------|3-----3-3-----3-|----------------|----------------|
A|4-----4-4-----4-|----------------|1-----1-1-----1-|0-----0---------|
E|----------------|----------------|----------------|--------2-----2-|

G|----------------|----------------|----------------|----------------|
D|----------------|----------------|----------------|----------------|
A|4-----4-4-----4-|----------------|--------4-------|----------------|
E|----------------|4-------4-------|----------------|--------2-------|

G|----------------|----------------|----------------|----------------|
D|----------------|----------------|----------------|----------------|
A|----------------|4---------------|----------------|----------------|
E|----------------|----------------|----------------|----------------|
Suggest correction
Give kudos to tab author, rate the tab!
1 2 3 4 5
comments
print report bad tab
guest
You may want to rate the tab now too:
select rating
Wanna post a correction for this tab? Suggest correction