Oops, an error
Loading. Please wait.

Up On The Roof Bass Tab

43 views 1 this week
no commentswrite comment
1 2 3 4 5
3 more votes to show rating
add to favorites
launch autoscroll
font size
0
reset
guitar tuner
×
Best way to learn
"Up On The Roof"
Autoscroll
slow
fast
+/-
esc
set tempo
stop
Author
Difficulty
About this tab version
The was song written by Gerry Goffin and Carole King and made famous by The Drifters. Was this info helpful? Yes No
  [Verse]
  this             getting          people                 for     to
G|0-----0-0-------|----------------|----------------|----------------|
D|------------0---|2-----2-2-------|----------------|0-----0-0-------|
A|----------------|------------2---|3-----3-3---3---|----------------|
E|----------------|----------------|----------------|----------------|

G|0-----0-0-------|0-----0-0-------|0-----0-0-------|----------------|
D|------------0---|------------0---|------------0---|2-----2-2-------|
A|----------------|----------------|----------------|------------2---|
E|----------------|----------------|----------------|----------------|

G|----------------|----------------|0-----0-0-------|0-----0-0-------|
D|----------------|0-----0-0-------|------------0---|------------0---|
A|3-----3-3---2---|----------------|----------------|----------------|
E|----------------|----------------|----------------|----------------|

G|----------------|----------------|----------------|----------------|
D|----------------|----------------|----------------|----------------|
A|3-----3-3-------|3-----3-3-------|3-----3-3-------|3-----3-3-------|
E|----------------|----------------|----------------|----------------|

G|0-----0-0-------|----------------|----------------|----------------|
D|----------------|2-----2-2-------|----------------|0---------------|
A|----------------|----------------|3-----3-3---3-4-|----------------|
E|----------------|----------------|----------------|----------------|
 
  [Verse]
G|0-----0-0-------|----------------|----------------|----------------|
D|------------0---|2-----2-2-------|----------------|0-----0-0-------|
A|----------------|------------2---|3-----3-3---3---|----------------|
E|----------------|----------------|----------------|----------------|

G|0-----0-0-------|0-----0-0-------|0-----0-0-------|----------------|
D|------------0---|------------0---|------------0---|2-----2-2-------|
A|----------------|----------------|----------------|------------2---|
E|----------------|----------------|----------------|----------------|

G|----------------|----------------|0-----0-0-------|0-----0-0-------|
D|----------------|0-----0-0-------|------------0---|------------0---|
A|3-----3-3---2---|----------------|----------------|----------------|
E|----------------|----------------|----------------|----------------|

G|----------------|----------------|----------------|----------------|
D|----------------|----------------|----------------|----------------|
A|3-----3-3-------|3-----3-3-------|3-----3-3-------|3-----3-3-------|
E|----------------|----------------|----------------|----------------|

G|0-----0-0-------|----------------|----------------|----------------|
D|----------------|2-----2-2-------|----------------|0---------------|
A|----------------|----------------|3-----3-3---3-4-|----------------|
E|----------------|----------------|----------------|----------------|

G|0-----0-0-------|----------------|----------------|----------------|
D|------------0---|2-----2-2-------|----------------|0-----0-0-------|
A|----------------|------------2---|3-----3-3---2---|----------------|
E|----------------|----------------|----------------|----------------|

G|0-----0-0-------|0-----0-0-------|
D|------------0---|------------0---|
A|----------------|----------------|
E|----------------|----------------|

G|----------------|----------------|----------------|----------------|
D|----------------|----------------|----------------|----------------|
A|3-----3-3-------|3-----3-3-------|3-----3-3-------|3-----3-3-------|
E|----------------|----------------|----------------|----------------|

G|0-----0-0-------|----------------|----------------|----------------|
D|----------------|2-----2-2-------|----------------|0---------------|
A|----------------|----------------|3-----3-3---3-4-|----------------|
E|----------------|----------------|----------------|----------------|

  [Verse]
G|0-----0-0-------|----------------|----------------|----------------|
D|------------0---|2-----2-2-------|----------------|0-----0-0-------|
A|----------------|------------2---|3-----3-3---3---|----------------|
E|----------------|----------------|----------------|----------------|

G|0-----0-0-------|0-----0-0-------|0-----0-0-------|----------------|
D|------------0---|------------0---|------------0---|2-----2-2-------|
A|----------------|----------------|----------------|------------2---|
E|----------------|----------------|----------------|----------------|

G|----------------|----------------|0-----0-0-------|0-----0-0-------|
D|----------------|0-----0-0-------|------------0---|------------0---|
A|3-----3-3---2---|----------------|----------------|----------------|
E|----------------|----------------|----------------|----------------|

G|----------------|----------------|0-----0-0-------|0-----0-0-------|
D|----------------|----------------|------------0---|------------0---|
A|3-----3-3-------|3-----3-3-------|----------------|----------------|
E|----------------|----------------|----------------|----------------|

Keep repeating the above 4 bars.
Suggest correction
Give kudos to tab author, rate the tab!
1 2 3 4 5
comments
print report bad tab
guest
You may want to rate the tab now too:
select rating
Wanna post a correction for this tab? Suggest correction