Oops, an error
Loading. Please wait.

Where You Lead Bass Tab

28 views 3 this week
no commentswrite comment
1 2 3 4 5
3 more votes to show rating
add to favorites
launch autoscroll
font size
0
reset
guitar tuner
Autoscroll
slow
fast
+/-
esc
set tempo
stop
Help us to improve Ultimate-Guitar.com Take our survey!
×
Author
Difficulty
intermediate
About this tab version
A revised version of this song is the theme song for the television series Gilmore Girls. Was this info helpful? Yes No
  [Intro]
G|----------------|
D|----------------|
A|------------1---|
E|1---1---1-------|


  [Verse]
G|----------------|----------------|----------------|----------------|
D|----------------|----------------|----------------|----------------|
A|3---3---3-------|3---3---3-------|3---3---3-------|3---3---3-------|
E|----------------|----------------|----------------|----------------|

G|----------------|----------------|--------0-----0-|3---------------|
D|------------2---|--------------2-|0-----0---------|----------------|
A|3---3---3-------|0-----0-0-------|----------------|------3-3-----3-|
E|----------------|----------------|----------------|----------------|


  [Chorus]
G|----------------|--------0-------|----------------|----------------|
D|3-----3---------|3-----3-----0---|----------------|----------------|
A|--------3-----3-|----------------|1-----1-1-----1-|--------0---1---|
E|----------------|----------------|----------------|1-----1---------|

G|----------------|----------------|----------------|----------------|
D|3-----3-2-----2-|0---------------|----------------|3-----3-3-------|
A|----------------|------3-3---3---|0-----0-----3---|----------------|
E|----------------|----------------|--------3-------|----------------|


  [Verse]
G|----------------|----------------|----------------|----------------|
D|----------------|----------------|----------------|----------------|
A|3---3---3-------|3---3---3-------|3---3---3-------|3---3---3-------|
E|----------------|----------------|----------------|----------------|

G|----------------|----------------|--------0-----0-|3---------------|
D|------------2---|--------------2-|0-----0---------|----------------|
A|3---3---3-------|0-----0-0-------|----------------|------3-3-----3-|
E|----------------|----------------|----------------|----------------|


  [Chorus] 
G|----------------|--------0-------|----------------|----------------|
D|3-----3---------|3-----3-----0---|----------------|----------------|
A|--------3-----3-|----------------|1-----1-1-----1-|--------0---1---|
E|----------------|----------------|----------------|1-----1---------|

G|----------------|----------------|----------------|----------------|
D|3-----3-2-----2-|0---------------|----------------|3-----3-3-------|
A|----------------|------3-3---3---|0-----0-----3---|----------------|
E|----------------|----------------|--------3-------|----------------|


  [Bridge]
G|----------------|----------------|----------------|----------------|
D|------1-1-------|3-----3-3---3---|------1-1-------|3---------------|
A|1-------------3-|----------------|1-------------1-|------3-3---3---|
E|----------------|----------------|----------------|----------------|

G|----------------|----------------|----------------|----------------|
D|------1-1-------|3-----3-3---3---|------1---------|3---3---3-------|
A|1-------------3-|----------------|1-------1-------|------------3---|
E|----------------|----------------|----------------|----------------|

G|----------------|----------------|----------------|----------------|
D|----------------|3-----3-3-------|----------------|3-----3-3-------|
A|1-----1-1-----1-|--------------3-|1-----1-1-----1-|--------------3-|
E|----------------|----------------|----------------|----------------|

G|----------------|----------------|----------------|----------------|
D|--------------1-|3-----3-0-------|----------------|----------------|
A|1-----1-1-------|--------------3-|0-----0-0-----0-|--------3-------|
E|----------------|----------------|----------------|3---------------|


  [Verse]
G|----------------|----------------|----------------|----------------|
D|----------------|----------------|----------------|----------------|
A|3---3---3-------|3---3---3-------|3---3---3-------|3---3---3-------|
E|----------------|----------------|----------------|----------------|

G|----------------|----------------|--------0-----0-|----------------|
D|------------2---|--------------2-|0-----0---------|----------------|
A|3---3---3-------|0-----0-0-------|----------------|3-----3-3-----3-|
E|----------------|----------------|----------------|----------------|


  [Chorus]
G|----------------|--------0-------|----------------|----------------|
D|3-----3---------|3-----3-----0---|----------------|----------------|
A|--------3-----3-|----------------|1-----1-1-----1-|--------0---1---|
E|----------------|----------------|----------------|1-----1---------|

G|----------------|----------------|----------------|----------------|
D|3-----3-2-----2-|0---------------|----------------|----------------|
A|----------------|------3-3---3---|0-----0-----3---|3-----3-3-------|
E|----------------|----------------|--------3-------|----------------|


  [Outro]
G|----------------|----------------|----------------|
D|----------------|----------------|----------------|
A|3-----3-3-------|3-----3-3-------|3-----3-3---3---|
E|----------------|----------------|----------------|

G|----------------|----------------|----------------|----------------|
D|--------3-----3-|--------3-----3-|--------3-----3-|--------3-----3-|
A|3-----3---------|3-----3---------|3-----3---------|3-----3---------|
E|----------------|----------------|----------------|----------------|

  Keep repeating the above 4 bars. 
Suggest correction
Give kudos to tab author, rate the tab!
1 2 3 4 5
comments
print report bad tab
guest
You may want to rate the tab now too:
select rating
Wanna post a correction for this tab? Suggest correction