Oops, an error
Loading. Please wait.

Will You Still Love Me Tomorrow Bass Tab

127 views 9 this week
no commentswrite comment
1 2 3 4 5
3 more votes to show rating
add to favorites
launch autoscroll
font size
0
reset
guitar tuner
Autoscroll
slow
fast
+/-
esc
set tempo
stop
Help us to improve Ultimate-Guitar.com Take our survey!
×
Author
Difficulty
novice
About this tab version
This song was written by Gerry Goffin and Carole King. Was this info helpful? Yes No
G|----------------|----------------|----------------|0---------------|
D|----------------|----------------|3---------------|----------------|
A|3---------------|3---------------|----------------|----------------|
E|----------------|----------------|----------------|----------------|
 
  [Verse]
      Tonight   mine           com  plet ly
G|----------------|----------------|----------------|----------------|
D|----------------|----------------|3---------------|3---------------|
A|3-------------3-|3---------------|----------------|----------------|
E|----------------|----------------|----------------|------------3---|

G|----------------|----------------|----------------|----------------|
D|----------------|----------------|----------------|------------3---|
A|3-------------3-|3---------------|----------------|----------------|
E|----------------|----------------|3-------------3-|3---------------|

G|----------------|----------------|----------------|----------------|
D|2-----2-2-------|2-----2-2---2---|----------------|----------------|
A|----------------|----------------|0-----0-0-----0-|--------0-------|
E|----------------|----------------|----------------|3-----3-----3---|

G|----------------|----------------|----------------|----------------|
D|3-----3-3-------|------------3---|----------------|----------------|
A|----------------|2---------------|3-----3-3-------|----------------|
E|----------------|----------------|----------------|3-------3---3---|

  [Verse]
G|----------------|----------------|----------------|----------------|
D|----------------|----------------|3---------------|3---------------|
A|3-------------3-|3---------------|----------------|----------------|
E|----------------|----------------|----------------|------------3---|

G|----------------|----------------|----------------|----------------|
D|----------------|----------------|----------------|------------3---|
A|3-------------3-|3---------------|----------------|----------------|
E|----------------|----------------|3-------------3-|3---------------|

G|----------------|----------------|----------------|----------------|
D|2-----2-2-------|2-----2-2---2---|----------------|----------------|
A|----------------|----------------|0-----0-0-----0-|--------0-------|
E|----------------|----------------|----------------|3-----3-----3---|

G|----------------|----------------|----------------|----------------|
D|3-----3-3-------|------------3---|----------------|----------------|
A|----------------|2---------------|3-----3-3-------|3-------3---3---|
E|----------------|----------------|----------------|----------------|

  [Break]
G|----------------|----------------|----------------|----------------|
D|3-3-----3-----3-|3-----3-3-----3-|2-----2-2-------|2-----2-2---2---|
A|----------------|----------------|----------------|--2-------------|
E|----------------|----------------|----------------|----------------|

G|----------------|----------------|----------------|----------------|
D|3-3-----3-----3-|------------3---|2-----2-2-------|2-----2-2-------|
A|----------------|----------------|----------------|----------------|
E|----------------|3---------------|----------------|----------------|

G|----------------|----------------|----------------|----------------|
D|3-3-----3-----3-|3-----3-3-----3-|2-----2-2-------|2-----2-2---2---|
A|----------------|----------------|----------------|--2-------------|
E|----------------|----------------|----------------|----------------|

G|----------------|----------------|----------------|----------------|
D|----------------|2-----------2---|----------------|----------------|
A|0---------------|----------------|----------------|----------------|
E|----------------|----------------|3-3-3-3-3-3-3-3-|3---------------|

  [Verse]
G|----------------|----------------|----------------|----------------|
D|----------------|----------------|3---------------|3---------------|
A|3-------------3-|3---------------|----------------|----------------|
E|----------------|----------------|----------------|------------3---|

G|----------------|----------------|----------------|----------------|
D|----------------|----------------|----------------|----------------|
A|3-------------3-|3---------------|----------------|----------------|
E|----------------|----------------|3-------------3-|3---------------|

G|----------------|----------------|----------------|----------------|
D|2-----2-2-------|2-----2-2-------|----------------|----------------|
A|----------------|----------------|0-----0-0-----0-|--------0-------|
E|----------------|----------------|----------------|3-----3-----3---|

G|----------------|----------------|----------------|----------------|
D|3-----3-3-------|------------3---|----------------|----------------|
A|----------------|----------------|3-----3-3-------|3-----3-3-------|
E|----------------|3---------------|----------------|----------------|

  [Outro]
G|----------------|----------------|----------------|----------------|
D|3-----3-3-------|------------3---|----------------|----------------|
A|----------------|----------------|3-----3-3-------|3-----3-3-------|
E|----------------|3---------------|----------------|----------------|

G|----------------|----------------|----------------|----------------|
D|3-----3-3-------|------------3---|----------------|----------------|
A|----------------|----------------|3-----3-3-------|3-----3-3-------|
E|----------------|3---------------|----------------|----------------|

  Keep repeating the above 4 bars. 
Suggest correction
Give kudos to tab author, rate the tab!
1 2 3 4 5
comments
print report bad tab
guest
You may want to rate the tab now too:
select rating
Wanna post a correction for this tab? Suggest correction