Oops, an error
Loading. Please wait.

You Light Up My Life Bass Tab

19 views 1 this week
no commentswrite comment
1 2 3 4 5
2 more votes to show rating
add to favorites
launch autoscroll
font size
0
reset
guitar tuner
Autoscroll
slow
fast
+/-
esc
set tempo
stop
Help us to improve Ultimate-Guitar.com Take our survey!
×
Author
Difficulty
novice
About this tab version
This song charted in 1973. Was this info helpful? Yes No
  [Verse]
G|----------------|----------------|----------------|----------------|
D|3-----3-3-----3-|3-----3-3-----3-|----------------|----------------|
A|----------------|----------------|1-----1-1-----1-|1-----1-1-----1-|
E|----------------|----------------|----------------|----------------|

G|----------------|----------------|----------------|----------------|
D|3-----3-3-----3-|3-----3-3-----3-|----------------|----------3-----|
A|----------------|----------------|1-----1-1-----1-|1-----1-1-------|
E|----------------|----------------|----------------|----------------|

G|----------------|1-----1-1-----1-|0-----0-0-----0-|1-----1---------|
D|----------------|----------------|----------------|--------1-----1-|
A|3-----3-3-----3-|----------------|----------------|----------------|
E|----------------|----------------|----------------|----------------|

  [Chorus]
G|----------------|----------------|
D|3-----3-3-----3-|3-----3---------|
A|----------------|--------1-----1-|
E|----------------|----------------|

G|----------------|----------------|----------------|------------|
D|------1---------|--1-------------|--1-----------1-|----------1-|
A|1-----------1---|------------1---|--------1-------|----1-------|
E|----------------|----------------|----------------|------------|

  [Verse]
G|----------------|----------------|----------------|----------------|
D|3-----3-3-----3-|3-----3-3-----3-|----------------|----------------|
A|----------------|----------------|1-----1-1-----1-|1-----1-1-----1-|
E|----------------|----------------|----------------|----------------|

G|----------------|----------------|----------------|----------------|
D|3-----3-3-----3-|3-----3-3-----3-|----------------|----------------|
A|----------------|----------------|1-----1-1-----1-|1-----1-1-------|
E|----------------|----------------|----------------|----------3-----|

G|----------------|1-----1-1-----1-|0-----0-0-----0-|1-----1---------|
D|----------------|----------------|----------------|--------1-----1-|
A|3-----3-3-----3-|----------------|----------------|----------------|
E|----------------|----------------|----------------|----------------|

  [Chorus]
G|----------------|----------------|
D|3-----3-3-----3-|3-----3---------|
A|----------------|--------1-----1-|
E|----------------|----------------|

G|----------------|----------------|----------------|------------|
D|------1---------|--1-------------|--1-----------0-|----------1-|
A|1-----------1---|------------1---|--------1-------|----1-------|
E|----------------|----------------|----------------|------------|

  [Bridge]
G|----------------|----------------|----------------|----------------|
D|0-----0---------|0-----0---------|----------------|--------3-----3-|
A|--------0-----0-|----------------|3-----3-3-----3-|3-----3---------|
E|----------------|--------3-----3-|----------------|----------------|

G|----------------|----------------|----------------|----------------|
D|----------------|----------------|----------------|0-----0-1-----1-|
A|----------------|----------------|3-----3-3-----3-|----------------|
E|3-----3-3-----3-|3-----3-3-----3-|----------------|----------------|

G|----------------|----------------|----------------|----------------|
D|3-----3-3-----3-|3-----3-3-----3-|3-----3---------|----------------|
A|----------------|----------------|--------1-----1-|1-----1-1-----1-|
E|----------------|----------------|----------------|----------------|
                                                             
G|----------------|----------------|----------------|----------------|
D|----------------|3-----3-3-----3-|3-----3---------|----------------|
A|1-----1-1-----1-|----------------|--------1-----1-|1-----1-1-----1-|
E|----------------|----------------|----------------|----------------|

          Never            Feel             Lovin 
G|----------------|--------1-----1-|1-----1-0-----0-|0-----0-|
D|1-----1---------|----------------|----------------|--------|
A|--------3-----3-|3-----3---------|----------------|--------|
E|----------------|----------------|----------------|--------|

  You
G|1-----1---------|
D|--------1-----1-|
A|----------------|
E|----------------|

 [Outro]
  You
G|----------------|----------------|
D|3-----3-3-----3-|3-----3---------|
A|----------------|--------1-----1-|
E|----------------|----------------|

G|----------------|----------------|----------------|
D|------1---------|--1-------------|--1-----------1-|
A|1-----------1---|------------1---|--------1-------|
E|----------------|----------------|----------------|

G|----------------|----------------|
D|------------1---|--------1-------|
A|------1---------|--1-------------|
E|----------------|----------------|
Suggest correction
Give kudos to tab author, rate the tab!
1 2 3 4 5
comments
print report bad tab
guest
You may want to rate the tab now too:
select rating
Wanna post a correction for this tab? Suggest correction